PrimaNota.ru - самый крупный в мире бесплатный архив песенных текстов, аккордов, табулатур и нот


Jeff Martin - Lament - таба, видео

Регистрация Запомнить меня
Войти через:  Facebook Google Twitter Vk Yandex Mail.ru

Jeff Martin - Lament - таба, видео

Печатать
Просмотров: 103
-------------------------------------------------------------------------------
                             Lament – Jeff Martin
-------------------------------------------------------------------------------
Tabbed by:pootweet
Email:pootweet@gmail.com

Tuning:open E

Intro
e|12+-7+-9+-------------------------------0----------------------------------|
B|-12+-7+---------------------------------0----------------------------------|
G|----------------------------------0-----0-----------0----------------------|
E|----------4-5-7-7/9-5/7-4-5-4—-2/4-2-0--5------0-2/4-2-0---0---------------|
B|---------5-5-5----------------2---------5—0-0h2---------0h2----0-----------|
E|----------------------------------------5-------------------2/4-2-0-0------|

e|---------0-------------------------0------------------------0-------------0|
B|---------0-------------------------0-------------------------0------------0|
G|---------0-------------------0-----0----------0---------------0----0------0|
E|---4-5-6-7—7/9-5/7-4-5-4—-2/4-2-0--5-----0-2/4-2-0---0----------2/4-2-0---5|
B|--5-5-5--5---------------2---------5—0-0h2--------0h2----0----------------5|
E|-----------------------------------5------------------2/4-2-0-------------5|

e|-------------0---------------------0---------------------------------------|
B|----------2/5-2-0---0--------------0---------------------------------------|
G|------0----------2/3--2-0----0-----0------------0--------------------------|
E|-2/4-2-0------------------2/4-2-0--5-----0-2/4-2--0----0-------------------|
B|-2-------------------------------0-5--0-2-----------0h2--2-0----0----------|
E|-----------------------------------5-------------------------2/4--2-0------|
Verse
   If  my  eyes could never see your face again    return me to the earth
e|-----------0--------------------------------------------------------0------|
B|-----------0--------------------------------------------------------0------|
G|-----------0--------------------------------------------0-----------0------|
E|---4--5---7-------7/9--------5/7----4----5-4-------2/4------2--0----5------|
B|--5--5---5----------------------------------------2-----------------5------|
E|--------------------------------------------------------------------5------|

     Return   me to the earth.
e|---------------------------------------------------------------------------|
B|---------------------------------------------------------------------------|
G|------------0--------------------------------------------------------------|
E|-----0-2/4------2--0-------0-----------------------------------------------|
B|--0h2------------------0h2-------0-----------------------------------------|
E|-----------------------------2/4----2--0--0--------------------------------|

   If  my  heart could never feel your heart again    return me to the earth
e|-----------0-----------------------------------------------------------0---|
B|-----------0-----------------------------------------------------------0---|
G|-----------0-----------------------------------------------0-----------0---|
E|---4--5---7--------7/9---------5/7----4-----5-4-------2/4------2--0----5---|
B|--5--5---5------------------------------------------2------------------5---|
E|-----------------------------------------------------------------------5---|

     Return   me to the earth.
e|---------------------------------------------------------------------------|
B|---------------------------------------------------------------------------|
G|------------0--------------------------------------------------------------|
E|-----0-2/4------2--0-------0-----------------------------------------------|
B|--0h2------------------0h2-------0-----------------------------------------|
E|-----------------------------2/4----2--0--0--------------------------------|




   She said I wont leave now     Ill take it underground
e|-0----------------------0--------------------------------------------------|
B|---0--------------------0--------------------------------------------------|
G|-----0--------0---------0----------------0---------------------------------|
E|----------2/4-----2-0---5-----------2/4------2-0--0------------------------|
B|------------------------5-------2------------------------------------------|
E|------------------------5--------------------------------------------------|

                 I wont leave now    Ill take it underground
e|----0------------------------0---------------------------------------------|
B|-2/5--2-0---0----------------0---------------------------------------------|
G|---------2/3-2-0--------0----0------------------0--------------------------|
E|-------------------0-2/4-2-0-5-----------0---2/4—2-0----0------------------|
B|----------------0h2----------5------0-0h2------------0h2-----0-------------|
E|-----------------------------5----------------------------2/4--2-0-0-------|

Back to the intro
e|----------------------------------------0----------------------------------|
B|----------------------------------------0----------------------------------|
G|----------------------------------0-----0-----------0----------------------|
E|----------4-5-7—7/9-5/7-4-5-4—-2/4-2-0--5------0-2/4--2-0---0--------------|
B|---------5-5-5----------------2---------5-0-0h2----------0h2-----0---------|
E|----------------------------------------5---------------------2/4-2-0-0----|

   If  my  soul could never meet your soul again    return me to the earth
e|-----------0--------------------------------------------------------0------|
B|-----------0--------------------------------------------------------0------|
G|-----------0--------------------------------------------0-----------0------|
E|---4--5---7-------7/9--------5/7----4----5-4-------2/4------2--0----5------|
B|--5--5---5----------------------------------------2-----------------5------|
E|--------------------------------------------------------------------5------|

     Return   me to the earth.
e|---------------------------------------------------------------------------|
B|---------------------------------------------------------------------------|
G|------------0--------------------------------------------------------------|
E|-----0-2/4------2--0-------0-----------------------------------------------|
B|--0h2------------------0h2-------0-----------------------------------------|
E|-----------------------------2/4----2--0-----------------------------------|

   She said I wont leave now     Ill take it underground
e|-0----------------------0--------------------------------------------------|
B|---0--------------------0--------------------------------------------------|
G|-----0--------0---------0----------------0---------------------------------|
E|----------2/4-----2-0---5-----------2/4------2-0--0------------------------|
B|------------------------5-------2------------------------------------------|
E|------------------------5--------------------------------------------------|

                 I wont leave now    Ill take it underground
e|----0------------------------0---------------------------------------------|
B|-2/5--2-0---0----------------0---------------------------------------------|
G|---------2/3-2-0--------0----0------------------0--------------------------|
E|-------------------0-2/4-2-0-5-----------0---2/4—2-0----0------------------|
B|----------------0h2----------5------0-0h2------------0h2-----0-------------|
E|-----------------------------5----------------------------2/4--2-0-0-------|






                       Ill never let you down again
e|----0--0--0--0-0--0----------------------------------0---------------------|
B|----0--0--0--0-0--0----------------------------------0---------------------|
G|----2--2--3--2-3--0--0---2--3---5---6---5----3-2--3--0---------------------|
E|------------------0----------------------------------0---------------------|
B|------------------0----------------------------------0---------------------|
E|---------------------------------------------------------------------------|

                                         Ill never let you down again
e|-----------------0--0--------------0-----------------------------------0---|
B|-----------------0--0--------------0-----------------------------------0---|
G|----2h3--3—2p0---2--3—2h3-3—-2p0---0---0---2--3---5---6---5----3-2--3--0---|
E|--------------0-----------------0--0-----------------------------------0---|
B|-----------------------------------0-----------------------------------0---|
E|---------------------------------------------------------------------------|

    Ill never let you down again
e|-----------------------------------0-------------------0-------------------|
B|-----------------------------------0-------------------0-------------------|
G|--0---2--3---5---6---5----3--2--3--0—--2h3--3—-2p0-----0-------------------|
E|-----------------------------------0--------------0----5-------------------|
B|-----------------------------------0-------------------5-------------------|
E|-------------------------------------------------------5-------------------|

                                 Woo   Woo           Woooooo                  
e|----------------------------------------------------------0----------------|
B|-------------------------------0--0--0--0-----------------0----------------|
G|----------0--------------------2--3--2--3-----------------0----------------|
E|----0-2/4---2-0---0-------------------------2h3--3—2p0----5----------------|
B|-0h2-----------0h2-----0------------------------------0---5----------------|
E|--------------------2/4--2--0-----------------------------5----------------|

e|---------------------------------------------------------------------------|
B|---------------------------------------------------------------------------|
G|----------0----------------------------------------------------------------|
E|----0-2/4---2-0---0--------------------------------------------------------|
B|-0h2-----------0h2-----0---------------------------------------------------|
E|--------------------2/4--2--0----------------------------------------------|

   She said I wont leave now     Ill take it underground
e|-0----------------------0--------------------------------------------------|
B|---0--------------------0--------------------------------------------------|
G|-----0--------0---------0----------------0---------------------------------|
E|----------2/4-----2-0---5-----------2/4------2-0--0------------------------|
B|------------------------5-------2------------------------------------------|
E|------------------------5--------------------------------------------------|

                 I wont leave now    Ill take it underground
e|----0------------------------0---------------------------------------------|
B|-2/5--2-0---0----------------0---------------------------------------------|
G|---------2/3-2-0--------0----0------------------0--------------------------|
E|-------------------0-2/4-2-0-5-----------0---2/4—2-0----0------------------|
B|----------------0h2----------5------0-0h2------------0h2-----0-------------|
E|-----------------------------5----------------------------2/4--2-0-0-------|

                 I wont leave now baby    Ill take it underground
e|----0------------------------0---------------------------------------------|
B|-2/5--2-0---0----------------0---------------------------------------------|
G|---------2/3-2-0--------0----0----------------------0----------------------|
E|-------------------0-2/4-2-0-5---------------0---2/4—2-0----0--------------|
B|----------------0h2----------5----------0-0h2------------0h2-----0---------|
E|-----------------------------5--------------------------------2/4--2-0-0---|

                 I wont leave now    Ill take it underground
e|----0------------------------0---------------------------------------------|
B|-2/5--2-0---0----------------0---------------------------------------------|
G|---------2/3-2-0--------0----0------------------0--------------------------|
E|-------------------0-2/4-2-0-5-----------0---2/4—2-0----0------------------|
B|----------------0h2----------5------0-0h2------------0h2-----0-------------|
E|-----------------------------5----------------------------2/4--2-0-0-------|

e|---12+--7+----12+----------------------------------------------------------|
B|-----12+-7+--12+-----------------------------------------------------------|
G|------------12+------------------------------------------------------------|
E|---------------------------------------------------------------------------|
B|---------------------------------------------------------------------------|
E|---------------------------------------------------------------------------|

************************************

| /   slide up
| \   slide down
| h   hammer-on
| p   pull-off
| ~   vibrato
| +   harmonic
| x   Mute note
| b   Bend
| pb  Pre-bend
| br  Bend release
| pbr Pre-bend release
| brb Bend release bend

************************************
Добавлено: 01.07.2012
Другие материалы по этой песне:
  • Аккорды и текст

Страница создана 01.07.2012
http://primanota.ru/jeff-martin/lament-chords.htm
Привет, Гость.
Предлагаем пройти революционный курс по гитаре.
Подарок от PrimaNota.Ru, забирай!