PrimaNota.ru - самый крупный в мире бесплатный архив песенных текстов, аккордов, табулатур и нот


Jeff Loomis - Miles Of Machine - таба, видео

Регистрация Запомнить меня
Войти через:  Facebook Google Twitter Vk Yandex Mail.ru

Jeff Loomis - Miles Of Machine - таба, видео

Печатать
Просмотров: 132
Song: Miles Of Machine
Album:Zero Order Phase
Author: Jeff Loomis

Note:I've putted it in 6 strings because most of it is on 6 strings.He usually uses his 
string when doing rhythm.

Acoustic(0:00)
|-------------5------10-5---13-10-5|12-9-------------------9-12-9---15-12-9-|
|---------------6---------6--------|----10--------------10-------10---------|
|---------7-------7----------------|------9------------9--------------------|
|0--7-3-0--7-3---------------------|-------11-------11----------------------|
|----------------------------------|---------12-8-12------------------------|
|----------------------------------|----------------------------------------|

|5---10-5----14-10-5-17-14-10-20-17-14-16-17-18-|
|-7---------------------------------------------|
|--7--------------------------------------------|
|-----------------------------------------------|
|-----------------------------------------------|
|-----------------------------------------------|

|19--15------------------------------------15-------|
|------15-------------------------15----------15----|
|--------16--------------------------16----------16-|
|----------17--------------16-----------17----------|
|------------17---------17----17--------------------|
|--------------17-10-17---------17------------------|

|18-15-12------------------12-15-12-------------18-15-12-|
|--------------------------------------------------------|
|----------18-15-12-15-18-----------18-15-12-15----------|
|--------------------------------------------------------|
|--------------------------------------------------------|
|--------------------------------------------------------|

|17-14-10---------------10-14-10------------14-10----|
|----------------------------------------------------|
|---------14-11-7-11-14----------14-11-7-11-------14-|
|----------------------------------------------------|
|----------------------------------------------------|
|----------------------------------------------------|

|16-13-10----------------10-13-10---16-13-10-|
|--------------------------------------------|
|---------16-13-10-13-16---------------------|
|--------------------------------------------|
|--------------------------------------------|
|--------------------------------------------|

|17-12-----------------------------12-----|
|-----14---------------------14------14---|
|-------14--------------14-----14------14-|
|---------14---------14---14-----14-------|
|-----------16-12-16--------16------------|
|-----------------------------------------|


Style of Beginning:Economy Picking/Sweep Picking (0:14)
|-----------------------------------12p7-8~-s15p12---14p11-12|
|----------------------------12p8-9~--------------12~--------|
|------9p14-9--b12-r12-11p9----------------------------------|
|---10-------10------------9---------------------------------|
|12----------------------------------------------------------|
|------------------------------------------------------------|

|----------------11-14p11----|
|12------------12--------12--|
|--13--------11--------------|
|----15----13----------------|
|------9-14------------------|
|----------------------------|

|--------12------16p12---------16---22-19----18-19-20-21-|
|13-16-15--15-12------15-16s19---17~-----21~-------------|
|--------------------------------------------------------|
|--------------------------------------------------------|
|--------------------------------------------------------|
Another Sweep too hard to Transcribe.
I'll try to transcribe the rest but here's the part after it(:27-38).
|--------------------------------------------|
|--------------------------------------------|
|13~-8~-s10-s13~-s18-s13-11-13-14~-13-11-s18~|
|--------------------------------------------|
|--------------------------------------------|
|--------------------------------------------|

|--------------------------------------------|
|--------------------------------------------|
|-15-17-18-15-17-18-s13~-s10-s8-8h10p8-------|
|-------------------------------------11~-/--|
|--------------------------------------------|
|--------------------------------------------|

I will try to transcribe the rest of it in the new future.
Добавлено: 01.05.2012
Вам также может быть интересно:
Другие материалы по этой песне:
  • Аккорды и текст

Страница создана 01.05.2012
http://primanota.ru/jeff-loomis/miles-of-machine-chords.htm
Привет, Гость.
Предлагаем пройти революционный курс по гитаре.
Подарок от PrimaNota.Ru, забирай!