PrimaNota.ru - самый крупный в мире бесплатный архив песенных текстов, аккордов, табулатур и нот


Jeff Leblanc - Until We Get It Right - аккорды и текст, видео

Регистрация Запомнить меня
Войти через:  Facebook Google Twitter Vk Yandex Mail.ru

Jeff Leblanc - Until We Get It Right - аккорды и текст, видео

Печатать
Просмотров: 69
Until We Get It Right
Jeff Leblanc
-----------------------------------------------------------------------------
                        UNTIL WE GET IT RIGHT – Jeff LeBlanc
-----------------------------------------------------------------------------

http://www.jeffleblancmusic.com/

Tabbed by: Bill Goers
Written by: Jeff LeBlanc

For strumming and feel, watch the video below:
http://youtu.be/g9UIwscqaps

Use thumb on E string where indicated (T)
Tuning: EADGBe

Intro/Verse:

     /16      /16      /16      /16 
    Bsus2                                                     
e|----2--------2---------------------------------------------------------|
B|----2--------o---------------------------------------------------------|
G|----4--------4--------4--------3---------------------------------------|
D|----4--------4--------4--------4---------------------------------------|
A|----2--------x--------2--------4---------------------------------------|
E|----2--------4(T)--------------2---------------------------------------|

Verse x2

Bsus2 ...

Chorus 1:

     /16      /16      /16      /16      /2       /2       /8
    Bsus2                                 E        B           
e|----2--------2-----------------------------------o--------o------------|
B|----2--------o-----------------------------------o--------o------------|
G|----4--------4--------4--------3--------1--------8--------3------------|
D|----4--------4--------4--------4--------2--------9--------4------------|
A|----2--------x--------2--------4--------2--------9--------4------------|
E|----2--------4(T)--------------2--------0--------7--------2------------|

Verse x2

Chorus 1

Bridge: 

     /8       /8       /8       /8        /8       /8       /8       /1
                               
e|----------------------o--------o---------------------------o--------o--|
B|----------------------o--------o---------------------------o--------o--|
G|---9---------9--------8--------3--------9---------9--------8--------3--|
D|---11--------9--------9--------4--------11--------9--------9--------4--|
A|---11--------7--------9--------4--------11--------7--------9--------4--|
E|---9(T)---------------7--------2--------9(T)---------------7--------2--|

Chorus 2:

     /2       /2       /16      /16
    Bsus2                                       
e|----2--------2---------------------------------------------------------|
B|----2--------o---------------------------------------------------------|
G|----4--------4--------4--------3---------------------------------------|
D|----4--------4--------4--------4---------------------------------------|
A|----2--------x--------2--------4---------------------------------------|
E|----2--------4(T)--------------2---------------------------------------|

Chorus 1

For questions/comments, http://www.twitter.com/wgoers

Lyrics:
VERSE 1:
Hold on to me
Hold on to me
We can find a way 

VERSE 2:
I can't need you
But I still feel you
And I just need to say

CHORUS 1:
Whatever you want
Whatever you need
I'll always be stuck
I'll never be free
I'll always be waiting on you
Waiting on you 
Until we get it right
Until we get it right

VERSE 3:
So much time lost
At such a high cost
But so much closer now

VERSE 4:
If we push through
Then we could be new 
And get this off the ground
BRIDGE:
And you say it's worth the fight
You hold on to all that we made
But your heart is taking flight
I won't let you walk 
I won't let you walk away

CHORUS 2:
Whatever you want
Whatever you need
I'll always be stuck 
I'll never be free
I'll always be waiting on you
Waiting on you
Добавлено: 13.08.2013
Другие материалы по этой песне:
  • Аккорды и текст

Страница создана 09.07.2013
http://primanota.ru/jeff-leblanc/until-we-get-it-right-chords.htm
Привет, Гость.
Предлагаем пройти революционный курс по гитаре.
Подарок от PrimaNota.Ru, забирай!