PrimaNota.ru - самый крупный в мире бесплатный архив песенных текстов, аккордов, табулатур и нот


Jeff Labar - Asking For A Beating - таба, видео

Регистрация Запомнить меня
Войти через:  Facebook Google Twitter Vk Yandex Mail.ru

Jeff Labar - Asking For A Beating - таба, видео

Печатать
Просмотров: 43
-------------------------------------------------------------------------------
                             SONG NAME - Asking For A Beating
-------------------------------------------------------------------------------
Tabbed by: mkonopa
E-mail: rr82rip@gmail.com

Tuning: Drop D (Lots of Pinch Harmonics, so listen for them throughout the song)

     x x       x    x x      /    x h x x   x     +h+  +  /  +  \
E|---------------------------------------------------------------------------------------|
B|---------------------------------------------------------------------------------------|
G|---------------------------------------------------------------------------------------|
D|-0-----3---0----3-----2---2-3-----0-----3---0--------0----2----------------------------|
A|-0-----3---0----3-----2---2-3-----0-----3---0---0-1---1-3---3-1------------------------|
D|---0-0---0----0---0-0---0-------0---0-0---0--------------------------------------------|

E|---------------------------------------------------------------------------------------|
B|---------------------------------------------------------------------------------------|
G|---------------------------------------------------------------------------------------|
D|-0-----3---0----3-----2---2-3-----0-----3---0--------0----2--3-2-----------------------|
A|-0-----3---0----3-----2---2-3-----0-----3---0---0-1---1-3----3-2-----------------------|
D|---0-0---0----0---0-----0-------0---0-0---0-----------------------Repeat from beginning|
               
E|---------------------------------------------------------------------------------------|
B|---------------------------------------------------------------------------------------|
G|---------------------------------------------------------------------------------------|
D|-0-------------------------------------------------------------------------------------|
A|-0-----------0-1--------1-2--------2-1-3-1-0-1-0---------------------------------------|
D|---0-0-0-0-0--0---0-0-0--0--0-0-0---0------------3-------------------------------------|

E|---------------------------------------------------------------------------------------|
B|--------------------------------------------6-----6-5----------------------------------|
G|--------------------------------------5-----5-----5-5----------------------------------|
D|-0------------------------------------5----------------5--7----------------------------|
A|-0-----------0-1--------1-2--------2--3-3-3---3-3------3--5----------------------------|
D|---0-0-0-0-0--0---0-0-0--0--0-0-0---0--------------------------------------------------|

E|---------------------------------------------------------------------------------------|
B|---------------------------------------------------------------------------------------|
G|---------------------------------------------------------------------------------------|
D|---------------------------------------------------------------------------------------|
A|-------------0-1--------1-2--------2-1-3-1-0-1-0---------------------------------------|
D|-------0-0-0--0---0-0-0--0--0-0-0---0------------3-------------------------------------|

E|---------------------------------------------------------------------------------------|
B|---------------------------------------------------------------------------------------|
G|---------------------------------------------------------------------------------------|
D|-0-------------------------------------------------------------------------------------|
A|-0-----------0-1--------1-2--------2---------------------------------------------------|
D|---0-0-0-0-0--0---0-0-0--0--0-0-0---0--------------------------------------------------|

E|---------------------------------------------------------------------------------------|
B|---------------------------------------------------------------------------------------|
G|----3----0-3-----3----0-3------3----0-3--------------------------2---3---6-------------|
D|---------------------------------------------------0-----------------------------------|
A|-3----3------3-2----2------2-1----1------1---0-1-3----1-3-1-0-0------------------------|
D|---------------------------------------------------------------------------------------|

************************************

| /   slide up
| \   slide down
| h   hammer-on
| p   pull-off
| ~   vibrato
| +   harmonic
| x   Mute note
| b   Bend
| pb  Pre-bend
| br  Bend release
| pbr Pre-bend release
| brb Bend release bend

************************************
Добавлено: 11.03.2016
Другие материалы по этой песне:
  • Аккорды и текст

Страница создана 11.03.2016
http://primanota.ru/jeff-labar/asking-for-a-beating-chords.htm
Привет, Гость.
Предлагаем пройти революционный курс по гитаре.
Подарок от PrimaNota.Ru, забирай!