PrimaNota.ru - самый крупный в мире бесплатный архив песенных текстов, аккордов, табулатур и нот


Jeff Deyo - More In Love - таба, видео

Регистрация Запомнить меня
Войти через:  Facebook Google Twitter Vk Yandex Mail.ru

Jeff Deyo - More In Love - таба, видео

Печатать
Просмотров: 96
---------------------------------------------------------------------------
		     More In Love – Jeff Deyo
---------------------------------------------------------------------------
Tabbed by: SWLABR
Tuning: Standard

Intro:                                            C#
e|--------------x-x--------------------------------------------------------|
B|--------------x-x--------------------------------------------------------|
G|--------------x-x-------------------------------6------------------------|
D|--------------x-x-------------------------------6------------------------|
A|----------2---x-x--------------------2----------4------------------------|
E|--4-2-4-----2-x-x-0-2-0-2----4-2-4-----2--0-2-0--------------------------|

                                                 C# B
e|--------------x-x--------------------------------------------------------|
B|--------------x-x--------------------------------------------------------|
G|--------------x-x-------------------------------6-4----------------------|
D|--------------x-x-------------------------------6-4----------------------|
A|----------2---x-x--------------------2----------4-2----------------------|
E|--4-2-4-----2-x-x-0-2-0-2----4-2-4-----2--0-2-0--------------------------|

Verse                                                     C#/G#
e|-------------------------------------------------------------------------|
B|---9------9----9-----9-----9---------------------------------------------|
G|---11b13—11b13—11b13—11b13—11b13-------------------------6---------------|
D|---------------------------------------------------------6---------------|
A|---------------------------------------------------------4---------------|
E|---------------------------------------------------------4---------------|
  Every day everyday I will live for….               …Your fame

                                                 C# B
e|--------------x-x--------------------------------------------------------|
B|--------------x-x--------------------------------------------------------|
G|--------------x-x-------------------------------6-4----------------------|
D|--------------x-x-------------------------------6-4----------------------|
A|----------2---x-x--------------------2----------4-2----------------------|
E|--4-2-4-----2-x-x-0-2-0-2----4-2-4-----2--0-2-0--------------------------|
  Evermore evermore I'll adore you. Thankful for every door that I break through

	                  C#/G#
e|--------------x-x--------------------------------------------------------|
B|--------------x-x--------------------------------------------------------|
G|--------------x-x----------------------------6---------------------------|
D|--------------x-x----------------------------6---------------------------|
A|----------2---x-x----------------------------4---------------------------|
E|--4-2-4-----2-x-x-0-2-0-2--------------------4---------------------------|
  In the trials and the smiles I will give You praise

Pre-chorus (notes on B string played by 2nd guitar)
    G#m               F#               G#m              F#
e|-------------------------------------------------------------------------|
B|--9--11---12---9----9--11--12----9---9---11--12—9-----11-12—14-----------|
G|-------------------------------------------------------------------------|
D|--6-----------------4----------------6----------------4------------------|
A|--6-----------------4----------------6----------------4------------------|
E|--4-----------------2----------------4----------------2------------------|
   You mean more than every breath and You free me with every step

Chorus
   B                            D#m                          C#
e|------------------------------6-6-6-6-6-6-6-6-6-6-6-6-6-6----------------|
B|-4-4-4-4-4-4-4-4-4-4-4-4-4-4--7-7-7-7-7-7-7-7-7-7-7-7-7-7--6-6-6-6-6-6-6-|
G|-4-4-4-4-4-4-4-4-4-4-4-4-4-4--8-8-8-8-8-8-8-8-8-8-8-8-8-8--6-6-6-6-6-6-6-|
D|-4-4-4-4-4-4-4-4-4-4-4-4-4-4--8-8-8-8-8-8-8-8-8-8-8-8-8-8--6-6-6-6-6-6-6-|
A|-2-2-2-2-2-2-2-2-2-2-2-2-2-2--6-6-6-6-6-6-6-6-6-6-6-6-6-6--4-4-4-4-4-4-4-|
E|-------------------------------------------------------------------------|
   You heal my broken heart and that's why I keep on falling more in love

   C#m      Gaug
e|-4-4-4-4--3-3-3-3-3-3-3--------------------------------------------------|
B|-5-5-5-5--4-4-4-4-4-4-4--------------------------------------------------|
G|-6-6-6-6--4-4-4-4-4-4-4--------------------------------------------------|
D|-6-6-6-6--5-5-5-5-5-5-5--------------------------------------------------|
A|-4-4-4-4-----------------------------------------------------------------|
E|-------------------------------------------------------------------------|
   More in love…

   B                            D#m                          C#
e|------------------------------6-6-6-6-6-6-6-6-6-6-6-6-6-6----------------|
B|-4-4-4-4-4-4-4-4-4-4-4-4-4-4--7-7-7-7-7-7-7-7-7-7-7-7-7-7--6-6-6-6-6-6-6-|
G|-4-4-4-4-4-4-4-4-4-4-4-4-4-4--8-8-8-8-8-8-8-8-8-8-8-8-8-8--6-6-6-6-6-6-6-|
D|-4-4-4-4-4-4-4-4-4-4-4-4-4-4--8-8-8-8-8-8-8-8-8-8-8-8-8-8--6-6-6-6-6-6-6-|
A|-2-2-2-2-2-2-2-2-2-2-2-2-2-2--6-6-6-6-6-6-6-6-6-6-6-6-6-6--4-4-4-4-4-4-4-|
E|-------------------------------------------------------------------------|
  You take me where You are and that's why I keep on falling more in love

                         C#m      Gaug
e|---------4-4-4-4--3-3-3-3---|
B|---------5-5-5-5--4-4-4-4---|
G|---------6-6-6-6--4-4-4-4---|
D|---------6-6-6-6--5-5-5-5---|
A|---------4-4-4-4------------|
E|----------------------------|
       So much more in love

                                                    C# B
e|-----------------x-x-----------------------------------------------------|
B|-----------------x-x-----------------------------------------------------|
G|-----------------x-x-------------------------------6-4-------------------|
D|-----------------x-x-------------------------------6-4-------------------|
A|-------------2---x-x--------------------2----------4-2-------------------|
E|-----4-2-4-----2-x-x-0-2-0-2----4-2-4-----2--0-2-0-----------------------|
  With You

Repeat verse, but play the main riff all the way through starting on the line “For the 
who has come as my Savior” and at evermore play it in unison with the high G# (like 
of 1st verse)

Pre-chorus

Chorus

Bridge: palm mute chords until it gets louder and heavier (Again, notes on B string are 
on 2nd guitar)
   G#m              F#               B                E
e|-------------------------------------------------------------------------|
B|-9----------------14---------------12---------------11—--11/12/11-9------|
G|-----------------------------------4-4-4-4-4-4-4-4-----------------------|
D|-6-6-6-6-6-6-6-6--4-4-4-4-4-4-4-4--4-4-4-4-4-4-4-4--2-2-2-2-2-2-2-2------|
A|-6-6-6-6-6-6-6-6--4-4-4-4-4-4-4-4--2-2-2-2-2-2-2-2--2-2-2-2-2-2-2-2------|
E|-4-4-4-4-4-4-4-4--2-2-2-2-2-2-2-2-------------------0-0-0-0-0-0-0-0------|

   G#m              F#               B                E
e|-------------------------------------------------------------------------|
B|-9----------------14---------------16---------------11—--11/12/11-9------|
G|-----------------------------------4-4-4-4-4-4-4-4-----------------------|
D|-6-6-6-6-6-6-6-6--4-4-4-4-4-4-4-4--4-4-4-4-4-4-4-4--2-2-2-2-2-2-2-2------|
A|-6-6-6-6-6-6-6-6--4-4-4-4-4-4-4-4--2-2-2-2-2-2-2-2--2-2-2-2-2-2-2-2------|
E|-4-4-4-4-4-4-4-4--2-2-2-2-2-2-2-2-------------------0-0-0-0-0-0-0-0------|

Repeat this progression over the bridge vocals.  Before the bridge get heavy a 3rd 
part comes in with:

e|-------------------------------------------------------------------------|
B|-11/12-12/11--11/12-12/11--11/12-12/11--11/12-12-------------------------|
G|-------------------------------------------------------------------------|
D|-------------------------------------------------------------------------|
A|-------------------------------------------------------------------------|
E|-------------------------------------------------------------------------|

Repeat Chorus
End with intro riff.

That's the whole song! During the last chorus the 3rd guitar comes on with that high 
part again, just listen to the song for when. Enjoy!
Добавлено: 31.05.2012
Другие материалы по этой песне:
  • Аккорды и текст

Страница создана 31.05.2012
http://primanota.ru/jeff-deyo/more-in-love-chords.htm
Привет, Гость.
Предлагаем пройти революционный курс по гитаре.
Подарок от PrimaNota.Ru, забирай!