PrimaNota.ru - самый крупный в мире бесплатный архив песенных текстов, аккордов, табулатур и нот


Jeff Buckley - Nightmares By The Sea - текст песни, таба, видео

Регистрация Запомнить меня
Войти через:  Facebook Google Twitter Vk Yandex Mail.ru

Jeff Buckley - Nightmares By The Sea - текст песни, таба, видео

Печатать
Просмотров: 74
                   Jeff Buckley- Nightmares By the Sea.
________________+__________________+___________+_________+_____+____+ 
Don't Forget Your Towel.

Kinda acoustic version..

INTRO:
------

E|-----------------|-----------------|
B|-----------------|-----------------|
G|-----------------|-----------------|
D|-----------------|-----------------|
A|-0-----0-----0---|-3---3---3---3---|
E|---0-0---0-0---0-|---2---2---2---2-|

E|-----------------|-----------------|
B|-----------------|-----------------|
G|-----------------|-----------------|
D|-----------------|-------------0---|
A|-0-----0-----0---|-3---3---3-------|
E|---0-0---0-0---0-|---2---2---2---2-|



VERSE RIFF:
-----------
   A5/E              F#b5
E|-----------------|-----------------|
B|-----------------|-----------------|
G|-----------------|-----------------| PLAY
D|-----------------|-----------------|  x6
A|-0-----0-----0---|-3---3---3---3---|
E|---0-0---0-0---0-|---2---2---2---2-|

Beware the bottled thoughts of angry young men 
Secret compartments hide all of the skeletons
Little girl wants to make her home with him 
In the middle of the shore, she wonders:

Pre Chorus:

Am                   C

E|-0---3---2-------|-0---------------|
B|-1---1---1-------|-1---------------|     Play
G|-2---2---2-------|-0---------------| 
D|-2---2---2-------|-2---------------|      X3
A|-0---0---0-------|-3---------------|
E|-----------------|-----------------|

"Don't know what you asked for." 
"Don't know what you asked for."

Chorus:

E|-----------------|-----------------|-----------------|-----------------|
B|-----------------|-----------------|-----------------|-----------------|
G|-----------------|-----------------|-----------------|-----------------|
D|-----------------|-----------------|-----------------|-----------------|
A|-5-5-5-5-5-5-5-5-|-8-8-8-8-8-8-8-8-|-6-6-6-6-6-6-6-6-|-6-6-6-6-6-6-6-6-|
E|-3-3-3-3-3-3-3-3-|-6-6-6-6-6-6-6-6-|-4-4-4-4-4-4-4-4-|-4-4-4-4-4-4-4-4-|
  All      young     lovers            know      why
E|-----------------|-----------------|-----------------|-----------------|
B|-----------------|-----------------|-----------------|-----------------|
G|-----------------|-----------------|-----------------|-----------------|
D|-----------------|-----------------|-----------------|-----------------|
A|-6-6-6-6-6-6-6-6-|-5-5-5-5-5-5-5-5-|-5-5-5-5-5-5-5-5-|-5-5-5-5-5-5-5-5-|
E|-6-6-6-6-6-6-6-6-|-6-6-6-6-6-6-6-6-|-8-8-8-8-8-8-8-8-|-8-8-8-8-8-8-8-8-|
  Nightmares        blind       their  mind's  eyes
E|-----------------|-----------------|-----------------|-----------------|
B|-----------------|-----------------|-----------------|-----------------|
G|-----------------|-----------------|-----------------|-----------------|
D|-----------------|-----------------|-----------------|-----------------|
A|-6-6-6-6-6-6-6-6-|-6-6-6-6-6-6-6-6-|-5-5-5-5-5-5-5-5-|-5-5-5-5-5-5-5-5-|
E|-8-8-8-8-8-8-8-8-|-6-6-6-6-6-6-6-6-|-5-5-5-5-5-5-5-5-|-5-5-5-5-5-5-5-5-|
  Your rube is young and handsome  so  new to your bedroom floor
E|-----------------|-----------------|
B|-----------------|-----------------|
G|-----------------|-----------------|
D|-----------------|-----------------|
A|-8-8-8-8-8-8-8-8-|---8---8---8-8---|
E|-8-8-8-8-8-8-8-8-|---8---8---8-8---|
  You're know damn well wheere you go!

INTRO:
------

E|-----------------|-----------------|
B|-----------------|-----------------|
G|-----------------|-----------------|
D|-----------------|-----------------|
A|-0-----0-----0---|-3---3---3---3---|
E|---0-0---0-0---0-|---2---2---2---2-|

E|-----------------|-----------------|
B|-----------------|-----------------|
G|-----------------|-----------------|
D|-----------------|-------------0---|
A|-0-----0-----0---|-3---3---3-------|
E|---0-0---0-0---0-|---2---2---2---2-|



VERSE RIFF:
-----------
   A5/E              F#/b5
E|-----------------|-----------------|
B|-----------------|-----------------|
G|-----------------|-----------------| PLAY
D|-----------------|-----------------|  x6
A|-0-----0-----0---|-3---3---3---3---|
E|---0-0---0-0---0-|---2---2---2---2-|

I've loved so many times and I've drowned them all 
From their coral graves, they rise up when darkness falls 
With their bones they'll scratch the window, I hear them call 

Pre Chorus:

Am                   C

E|-0---3---2-------|-0---------------|
B|-1---1---1-------|-1---------------|     Play
G|-2---2---2-------|-0---------------| 
D|-2---2---2-------|-2---------------|      X3
A|-0---0---0-------|-3---------------|
E|-----------------|-----------------|

"Don't know what you asked for." 
"Don't know what you asked for." 
"Don't know what you asked for." 

Chorus:

E|-----------------|-----------------|-----------------|-----------------|
B|-----------------|-----------------|-----------------|-----------------|
G|-----------------|-----------------|-----------------|-----------------|
D|-----------------|-----------------|-----------------|-----------------|
A|-5-5-5-5-5-5-5-5-|-8-8-8-8-8-8-8-8-|-6-6-6-6-6-6-6-6-|-6-6-6-6-6-6-6-6-|
E|-3-3-3-3-3-3-3-3-|-6-6-6-6-6-6-6-6-|-4-4-4-4-4-4-4-4-|-4-4-4-4-4-4-4-4-|
  All      young     lovers            know      why
E|-----------------|-----------------|-----------------|-----------------|
B|-----------------|-----------------|-----------------|-----------------|
G|-----------------|-----------------|-----------------|-----------------|
D|-----------------|-----------------|-----------------|-----------------|
A|-6-6-6-6-6-6-6-6-|-5-5-5-5-5-5-5-5-|-5-5-5-5-5-5-5-5-|-5-5-5-5-5-5-5-5-|
E|-6-6-6-6-6-6-6-6-|-6-6-6-6-6-6-6-6-|-8-8-8-8-8-8-8-8-|-8-8-8-8-8-8-8-8-|
  Nightmares        blind       their  mind's  eyes
E|-----------------|-----------------|-----------------|-----------------|
B|-----------------|-----------------|-----------------|-----------------|
G|-----------------|-----------------|-----------------|-----------------|
D|-----------------|-----------------|-----------------|-----------------|
A|-6-6-6-6-6-6-6-6-|-6-6-6-6-6-6-6-6-|-5-5-5-5-5-5-5-5-|-5-5-5-5-5-5-5-5-|
E|-8-8-8-8-8-8-8-8-|-6-6-6-6-6-6-6-6-|-5-5-5-5-5-5-5-5-|-5-5-5-5-5-5-5-5-|
  Your rube is young and handsome  so  new to your bedroom floor
E|-----------------|-----------------|
B|-----------------|-----------------|
G|-----------------|-----------------|
D|-----------------|-----------------|
A|-8-8-8-8-8-8-8-8-|---8---8---8-8---|
E|-8-8-8-8-8-8-8-8-|---8---8---8-8---|
  You know damn well where you'll go!


C Part (like chorus)

E|-----------------|-----------------|-----------------|-----------------|
B|-----------------|-----------------|-----------------|-----------------|
G|-----------------|-----------------|-----------------|-----------------|
D|-----------------|-----------------|-----------------|-----------------|
A|-5-5-5-5-5-5-5-5-|-8-8-8-8-8-8-8-8-|-6-6-6-6-6-6-6-6-|-6-6-6-6-6-6-6-6-|
E|-3-3-3-3-3-3-3-3-|-6-6-6-6-6-6-6-6-|-4-4-4-4-4-4-4-4-|-4-4-4-4-4-4-4-4-|
  Stay               with me      under these waves tonight
E|-----------------|-----------------|-----------------|-----------------|
B|-----------------|-----------------|-----------------|-----------------|
G|-----------------|-----------------|-----------------|-----------------|
D|-----------------|-----------------|-----------------|-----------------|
A|-6-6-6-6-6-6-6-6-|-5-5-5-5-5-5-5-5-|-5-5-5-5-5-5-5-5-|-5-5-5-5-5-5-5-5-|
E|-6-6-6-6-6-6-6-6-|-6-6-6-6-6-6-6-6-|-8-8-8-8-8-8-8-8-|-8-8-8-8-8-8-8-8-|
   Be free        for once         in your life tonight
E|-----------------|-----------------|-----------------|-----------------|
B|-----------------|-----------------|-----------------|-----------------|
G|-----------------|-----------------|-----------------|-----------------|
D|-----------------|-----------------|-----------------|-----------------|
A|-6-6-6-6-6-6-6-6-|-6-6-6-6-6-6-6-6-|-5-5-5-5-5-5-5-5-|-5-5-5-5-5-5-5-5-|
E|-8-8-8-8-8-8-8-8-|-6-6-6-6-6-6-6-6-|-5-5-5-5-5-5-5-5-|-5-5-5-5-5-5-5-5-|
   your rube is young and handsome so  new to your bedroom floor
E|-----------------|-----------------|
B|-----------------|-----------------|
G|-----------------|-----------------|
D|-----------------|-----------------|
A|-8-8-8-8-8-8-8-8-|---8---8---8-8---|
E|-8-8-8-8-8-8-8-8-|---8---8---8-8---|
  You know damn well where you'll go!

Chorus for Ending

Chorus:

E|-----------------|-----------------|-----------------|-----------------|
B|-----------------|-----------------|-----------------|-----------------|
G|-----------------|-----------------|-----------------|-----------------|
D|-----------------|-----------------|-----------------|-----------------|
A|-5-5-5-5-5-5-5-5-|-8-8-8-8-8-8-8-8-|-6-6-6-6-6-6-6-6-|-6-6-6-6-6-6-6-6-|
E|-3-3-3-3-3-3-3-3-|-6-6-6-6-6-6-6-6-|-4-4-4-4-4-4-4-4-|-4-4-4-4-4-4-4-4-|
  All      young     lovers            know      why
E|-----------------|-----------------|-----------------|-----------------|
B|-----------------|-----------------|-----------------|-----------------|
G|-----------------|-----------------|-----------------|-----------------|
D|-----------------|-----------------|-----------------|-----------------|
A|-6-6-6-6-6-6-6-6-|-5-5-5-5-5-5-5-5-|-5-5-5-5-5-5-5-5-|-5-5-5-5-5-5-5-5-|
E|-6-6-6-6-6-6-6-6-|-6-6-6-6-6-6-6-6-|-8-8-8-8-8-8-8-8-|-8-8-8-8-8-8-8-8-|
  Nightmares        blind       their  mind's  eyes
E|-----------------|-----------------|-----------------|-----------------|
B|-----------------|-----------------|-----------------|-----------------|
G|-----------------|-----------------|-----------------|-----------------|
D|-----------------|-----------------|-----------------|-----------------|
A|-6-6-6-6-6-6-6-6-|-6-6-6-6-6-6-6-6-|-5-5-5-5-5-5-5-5-|-5-5-5-5-5-5-5-5-|
E|-8-8-8-8-8-8-8-8-|-6-6-6-6-6-6-6-6-|-5-5-5-5-5-5-5-5-|-5-5-5-5-5-5-5-5-|
  Your rube is young and handsome  so  new to your bedroom floor
E|-----------------|-----------------|
B|-----------------|-----------------|
G|-----------------|-----------------|
D|-----------------|-----------------|
A|-8-8-8-8-8-8-8-8-|---8---8---8-8---|
E|-8-8-8-8-8-8-8-8-|---8---8---8-8---|
  You know damn well where you'll go!


Made by Roi Pascal.


*hasn't tabbed by me, except pre chrous and some of the chorus. 
Добавлено: 01.03.2016
Другие материалы по этой песне:

Страница создана 15.03.2012
http://primanota.ru/jeff-buckley/nightmares-by-the-sea-chords.htm
Привет, Гость.
Предлагаем пройти революционный курс по гитаре.
Подарок от PrimaNota.Ru, забирай!