PrimaNota.ru - самый крупный в мире бесплатный архив песенных текстов, аккордов, табулатур и нот


Jeff Berlin - Tears In Heaven - бас-таба, видео

Регистрация Запомнить меня
Войти через:  Facebook Google Twitter Vk Yandex Mail.ru

Jeff Berlin - Tears In Heaven - бас-таба, видео

Печатать
Просмотров: 255
Авторы музыки: Will Jennings, Eric Clapton
Авторы текста: Will Jennings, Eric Clapton
Artist: Jeff Berlin
Song: Tears in Heaven
Album: Taking Notes
Year: 1997

Tabbed by: Alberto De Bortoli
Website: www.albertodebortoli.it
Email: postmaster@albertodebortoli.it
Tab version: 1.0 (12th july 2008)

Ok guys, since 1997 nobody on earth tabbed this out. I asked myself why,
and I realized that this song is incredibly complex. This is actually
the first attempt on the web to tab this song out. I know that many people
were looking for this tab for a long time, now it's time to try to learn
how to play it ;)
Although this is the first version of the tab i think it's very accurate.

Enjoy


part I

G|-----------18h19p18----21----21-14------14-14-------------14-----------|
D|-------------------19----18-----------16------------141416---0---------|
A|-----0-0--------------------------------------141416-------------------|
E|-0-2-----------------------16---14--14-----12--------------------------|

G|---19----19p18-16-------14---------------------------------------------|
D|-16---------------19-18-14--------10p9p7----7--------------------------|
A|------17----------------12---7-9-7------9-7---9----7-0-0---------------|
E|------------------------------------------------7h9--------------------|

G|-6h7p6--9---9-11--11--14/16\14------------------------19--18-16--------|
D|------7--7h9--11--11--14/16\14--14/16\14--11/14-16--0-16--16-16-19p18--|
A|--------------9-----------------14/16\14--13/16-17--------------17-----|
E|-----------------------------------------------------------------------|

G|-13----13----------14-------16---/18----18-16-14-13-14-16-14-13--------|
D|---14----14------14--14---16--16-/19----------------------------16-14--|
A|-----14----14--16-------17-----------0---------------------------------|
E|-----------------------------------------------------------------------|

G|--------------------------------------------------19-------------------|
D|------------------161819----------------------0-16-------19--19--------|
A|-1411-------161719------19-16----16----19-16----------17---17----0-----|
E|-----1214---------------------19----17---------------------------------|

G|-------------------------/13----------------14----14-----14-/16-13-----|
D|-------------6-------6/9----14--------------16----16--16---------------|
A|-0-----7-7-9---9-7-9---------------------16----16----------------------|
E|---7h9--------------------------12-13-14-------------------------------|

G|--------13----13-13--16p14p13-------12-----12------/18-16-14-12--------|
D|------------------------------16-14-11---11--11----/19-18-16-14--------|
A|------14----14----------------------12-12------12----------------------|
E|-12-12----12-----------------------------------------------------------|

G|-11---------14-16-16--18-18--19-----19-------------14h16p14------------|
D|-11---141416---16-16--16-16--16-16----16-------14h16------16p14p12-----|
A|-13-13---------14-14--14-14--14---14----14-14h16----------------14p12--|
E|---------------------------------------------------------------------0-|

G|-19-19--17p16p14-------14----------------------------------------------|
D|-19-19-----------16-14-------------------------------------------------|
A|-17-17---------------------b15---12--0---------------------------------|
E|-----------------------------------------------------------------------|


part II

G|-18h19p18----21----21-14------14-14-----14-------------x-------14------|
D|---------19----18-----------16--------14------------12------16----16---|
A|-----------------------------------------------------------------------|
E|-----------------16---14--14-----12-12-----12-11-10------14------------|

G|-----14--1413--------1314---------------/19\18-/19\18-/18-----6h7p6----|
D|---14--------16141516----1211-----------/16\14-/16\14-/19----------7---|
A|-----------------------------1412----0--------------------0------------|
E|-12------------------------------1214----------------------------------|

G|-9----9-11-----------1417p16p14-----------------19---14--14------------|
D|--7h9-9-11---11121416----------161412----14---16---12--12--12-----1214-|
A|--------9--12------------------------1416---17----------------1214-----|
E|-----------------------------------------------------------------------|

G|-12h14p13------13----14------15------16-------17p16p14h16---16-1412-14-|
D|---------14--14----14--14--15--15--16--16------------------------------|
A|------------------------------------------12-0-------------------------|
E|-----------12----14------15------16----------------------15------------|

G|----14-14-12-10-9-----9-------11-----14-----14--------13h14-16151413---|
D|--------------------10-10---12-----16-----14-----14h16-----------------|
A|-------------------7---------------------------------------------------|
E|-13---------------0-------10-----14-----12----12-----------------------|

G|-----------------------13-----14------14-16-18-19-----19-----16-----13-|
D|-1614----------------14-------------16--------------18-----15-----12---|
A|-----1614----------14-------16----16-----------------------------------|
E|---------1614-13-12-------14----14----------------16-----13-----10-----|

G|---11----7-----12------/18-16-14-12---11--16-16--18-18--19------19-----|
D|--9-----9----11--11----/19-18-16-14--11---16-16--16-16--------17-------|
A|------11---12------12---------------13----14-14--14-14------14---------|
E|-7---------------------------------------------------------------------|

G|-----19----19-----19-19--17p16p14-------14-----------------------------|
D|---17----17---17--19-19-----------16-14--------------------------------|
A|-14----14---------17-17--------------------b15---12--0-----------------|
E|-----------------------------------------------------------------------|


part III

G|-18h19p18----21----21-14----14--------------17p16p14-----------14------|
D|---------19----18---------16------------------------161412-1216--1614--|
A|-----------------------------------12141614----------------------------|
E|-----------------16---14-------1214------------------------------------|

G|-----1413---------------14------------------9----7-9--17--17p16p14--19-|
D|-1216-----161412--141614--14-------------10---10-----19------------19--|
A|----------------16----------/16-12-0-----------------------------------|
E|-------------------------------------7-8-------------------------------|

G|-14-16-----16---14------14--14-----14-----14-------16-----17-21-17--19-|
D|---------17---17--17--17--17-----17-----17--17---17--17------------19--|
A|--------------------------------------------------------15-------------|
E|-------15-----------14---------12-----14-------15----------------------|

G|-21--17---171614----19----19---17-----19-----16-----1416-19-21---------|
D|----17----------1716----16----------19-----16-----16-------------------|
A|-------0--------------17-----17--------------------------------0-------|
E|----------------------------------19-----15-----14---------------------|

G|-19\18-18\16-16\14-14\12-12\11-----------------------------------------|
D|-21\19-19\17-17\16-16\14-14\12-------------------------14-16-18191817--|
A|-------------------------------0--12-1617191614-----14-----------------|
E|-----------------------------------------------1716--------------------|

G|------------/18--------1416181614--141614--14--------------------14----|
D|-1615181516------141618----------18------18--181614----14----1416--16--|
A|---------------------------------------------------1617--1617----------|
E|-----------------------------------------------------------------------|

G|-----------------------------------------------------------------------|
D|-1816141214------------------------121412---------------------------14-|
A|-----------1614----------14--121416------1614--------11------11--14----|
E|---------------1614111416--16----------------16141114--11/12-----------|

G|---------------------------------------14161816141614--16--14----------|
D|-12-11-9-7-9/11-14-17/19\---1614b161416--------------18--18---1614-----|
A|------------------------------------------------------------------1614-|
E|-----------------------------------------------------------------------|

G|---------------------14--16131416-18-21-201918171614161314-------------|
D|---------------121416--16---------------------------------161412-------|
A|-12\10-9-121416-------------------------------------------------161411-|
E|-----------------------------------------------------------------------|

G|--------------------14---14-16-18-19-1919-1818-1616-1515-1313-1212-109-|
D|--------------------16---16-----------18---17---15---14---12---11---9--|
A|-9-7-b9-----------16---16----------------------------------------------|
E|---------12-13-14--------------------16---15---13---12---10---9----7---|

G|--10-----12----/18-16-14-12-11---11-16--18---------19-----19--------19-|
D|--9----11--11--/19-18-16-15-11--11--16--16----16h17-----17-----16h17---|
A|-10--12---------------------13-13---14--14--14--------14-----14--------|
E|-----------------------------------------------------------------------|

G|-----19--------19-----19--------19-----19-------18---18-------18---18--|
D|---17-----16h17-----17-----16h17-----17----16h17---17----16h17---17----|
A|-14-----14--------14-----14--------14----------------------------------|
E|------------------------------------------0-------0-----0-------0------|

G|-------18---18-------18---18----17----17-----17-------17-----16--------|
D|--16h17---17----16h17---17----17----17-----17--17---17-----16-----17---|
A|-----------------------------------------15-------14------------15-----|
E|-0-------0-----0-------0-----0-----0---------------------17------------|

G|-/21-17-19-21--18----18h19p18---21----21-14---1414-------14---16-18h19-|
D|--------------19-------------19---18--------16----16---14--------------|
A|------------------0----------------------------------------------------|
E|------------------------------------16---14----------12----------------|

G|-----19-------18-------16---------14-------14-14--17p16-------21p17p16-|
D|---21--21---19-------19-----13-14----------14-14-------1916-16---------|
A|----------16----16-17----17-------------------12-----------------------|
E|-19----------------------------------14-12-----------------------------|

G|------17-----18h19p18----21-----21---14---14--------------16-18-19-----|
D|-19-19--19-----------19-----18----------14--14-------------------------|
A|---------------------------------------------------14------------------|
E|------------------------------16-----14---------12----12---------------|

G|-----1919---------1818---------16-----------14-------------------------|
D|---16----16-----20----20-----16--16-------16--16-----------------------|
A|-14--------14-16--------16-17------17-0-18------18-------0-2-4-5-7-9---|
E|---------------------------------------------------0-2-4---------------|

G|---------------------16---------14-----18h19p18---21----21--14---14----|
D|-------------14161819--181417/18---------------19---18---------16--16--|
A|-121112141617----------------------0-----------------------------------|
E|------------------------------------------------------16----14---------|

G|---------------------111413---13p11------------------------------------|
D|-------------------12------14------1412------------------7---8----10---|
A|-----1214161412------------------------1411-------0----7---8---10------|
E|-1214----------1210------------------------12-0-4----------------------|

G|----------------------------------14----15----17-------21----14--------|
D|----11----13----14----16----17-14----16----17-----18---------14--------|
A|-12----13----14----16----17----------------------------------12--------|
E|-------------------------------------------------------------12--------|
Добавлено: 31.05.2012
Другие материалы по этой песне:

Страница создана 31.05.2012
http://primanota.ru/jeff-berlin/tears-in-heaven-chords.htm
Привет, Гость.
Предлагаем пройти революционный курс по гитаре.
Подарок от PrimaNota.Ru, забирай!