PrimaNota.ru - самый крупный в мире бесплатный архив песенных текстов, аккордов, табулатур и нот


Jeff Beck - Serene - таба, видео

Регистрация Запомнить меня
Войти через:  Facebook Google Twitter Vk Yandex Mail.ru

Jeff Beck - Serene - таба, видео

Печатать
Просмотров: 154
-------------------------------------------------------------------------------
                                   Serene- Jeff Beck
-------------------------------------------------------------------------------
Tabbed by:Grenzomusic

Tuning:Standard
Intro:
                            +
e|---------10----------------------------------------------------------------|
B|-10--12------12--12--------------------------------------------------------|
G|---------------------12--(12)---2-/-9--7--6--6--7--7--6--4--9--6---------6-|
D|-------------------------------------------------------------------7--9----|
A|--------------------------------0-/-7--5--4--4--5--5--4--2--7--4-----------|
E|---------------------------------------------------------------------------|
     +     +whammy down  +
e|---------------------------------------------------------------------------|
B|---------------------------------------------------------------------------|
G|--(7)--(5)-----------(3)---------------------------------------------------|
D|---------------------------------------------------------------------------|
A|---------------------------------------------------------------------------|
E|---------------------------------------------------------------------------|
  
  Main Melody:
e|-------------------------------------------------12--14--------------------|
B|-------------------------12--14--14--14--12--14----------14-p-12-----------|
G|-----11--14--14--11--14----------------------------------------------------|
D|-14------------------------------------------------------------------------|
A|---------------------------------------------------------------------------|
E|---------------------------------------------------------------------------|

e|---------------------------------------------------------------------------|
B|-15b--14--14--12--14--15--12--------------------------12--14--14--12--12---|
G|----------------------------------11--14--14--11--14-----------------------|
D|------------------------------14-------------------------------------------|
A|---------------------------------------------------------------------------|
E|---------------------------------------------------------------------------|
           Verse:
e|----|----------------------------------------------------------------------|
B|-14-|---------------------------------10--9--12-------------------10--9----|
G|----|-------9--9--7--9p7p5---------9---------------------------9-----------|
D|----|----9b-----------------9---9b---------------12---9--7--9b-------------|
A|----|----------------------------------------------------------------------|
E|----|----------------------------------------------------------------------|
                                   Verse 2:
e|----------|--------------------|-------------------------------------------|
B|-12-------|-----Repeat Melody--|--------------17--17--15h17p15--14---------|
G|----------|--------------------|-16--14--16b------------------------16-----|
D|-----12---|--------------------|-------------------------------------------|
A|----------|--------------------|-------------------------------------------|
E|----------|--------------------|-------------------------------------------|

e|----------17--16--19-------------------------------------------------------|
B|------17--------------------------------------10--10--12--12b--12b---------|
G|-16b------------------19-------9--9--7h9p7-5-------------------------------|
D|---------------------------9b----------------------------------------------|
A|---------------------------------------------------------------------------|
E|---------------------------------------------------------------------------|

                        Bridge:                                      Solo Out
e|----------------17-|----------------------------------------------|--------|
B|-12b--12br--10-----|----------------------------------------------|--------|
G|-------------------|--7-\-6---------------------------------------|--------|
D|-------------------|---------5-/-6-\-5----------------------------|--------|
A|-------------------|---------------------7-/-9-\-7---5-/-7-\-5--7-|--------|
E|-------------------|----------------------------------------------|--------|


************************************

| /   slide up
| \   slide down
| h   hammer-on
| p   pull-off
| ~   vibrato
| +   harmonic
| x   Mute note
| b   Bend
| pb  Pre-bend
| br  Bend release
| pbr Pre-bend release
| brb Bend release bend

************************************
Добавлено: 14.06.2012
Другие материалы по этой песне:
  • Аккорды и текст

Страница создана 14.06.2012
http://primanota.ru/jeff-beck/serene-chords.htm
Привет, Гость.
Предлагаем пройти революционный курс по гитаре.
Подарок от PrimaNota.Ru, забирай!