PrimaNota.ru - самый крупный в мире бесплатный архив песенных текстов, аккордов, табулатур и нот


Jed Madela - Because Of You - таба, видео

Регистрация Запомнить меня
Войти через:  Facebook Google Twitter Vk Yandex Mail.ru

Jed Madela - Because Of You - таба, видео

Печатать
Просмотров: 168
Авторы: Keith Martin

Hi Miss. Bea Fajardo..!iTs a nice soNg, I made ds Tab for U!..

Tabbed by: Ric Tobias
Friendster: Rtob_03@yahoo.com


INTRO: DM7-G-DM7-G-

e|------------------------------------------------------------|
B|-------2--2------0-----0-------2--------2------0-----0------|
G|----2----------------0---------------2-------------0--------|
D|--0----------------0---------0-0--0-----0----0---0----------|
A|------------------------------------------------------------|
E|-----------------3-----------------------------3------------|


Verse 1: DM7--FM7/G--GM7--Am7sus-Am7(2x)

e|---------------------0-----------2--------------------------|
B|--2------2--------1-----------3--------3------------2-------|
G|------2--------------------------------0-----0------0-------|
D|--0-0----0-----0-----------0-----------2--2---------2-------|
A|---------------------------------------0------------0-------|
E|-------------3-----------3----------------------------------|

e|--------0----------------0------------2---------------------|
B|------2-----2----------1-----------3-------3-----2----------|
G|----2---------2----------------------------0-0---0--0-------|
D|--0-------0-----0----0----------0----------2-----2----2-----|
A|-------------------------------------------0-----0------0---|
E|-------------------3----------3-----------------------------|


Refrain 1: Bm7--F#m7--Em7--Am7sus-Am7-
           Bm7--F#m7--G--Am7sus-Am7-

  e|------------------------------------------------------------|
B|--3-----3-----------------2----------3---3--------2---------|
G|--2---2------2----------2---------0------0-0------0---------|
D|----4-----------------2---------0------------2----2---------|
A|--2------------2-------------------------0--------0---------|
E|-----------------0--2---------0-----------------------------|

e|------------------------------------------------------------|
B|--------3----------------2----------0---3-----3--------2----|
G|------2-----2----------2----------0-----0---0--------0------|
D|----4-----4----------2----------0---------2--------2--------|
A|--2-----------2-------------------------0--------0----------|
E|----------------0--2----------3-----------------------------|


Chorus 1: DM9--FM7/G--GM7--Am7sus-Am7-
          Bm7--F#m7--G--Am7sus-Am7-

e|--------0----0-----0-------------------------------------------|
B|------2-2----1-----1-------------------3------3-----3----------|
G|----2--------2---2---------------0-2-----2----0---0-------0----|
D|--0-----0----0-0--------0------0-----0-----0--2-2-------2------|
A|-------------x----------0---------------------0-------0-----0--|
E|-------------3------------0--3---------------------------------|

e|----------------------------------------------------------|
B|---------3--------2---------------3---3-----3---2---------|
G|------2--2------2-----2---------0-----0---0-----0---------|
D|----4---------2-------2-------0-------2-2-------2---------|
A|--2-------------------x---------------0---------0---------|
E|------------2---------2-0---3-----------------------------|

Interlude: DM7-G-DM7-G-

e|---------0----------------------------------0---------------|
B|------2--2---2---2---0-----0---0-----2---2--2-----0-----0---|
G|----2--------2-----------0-----2-----2-2--------------0-----|
D|--0------------0-------0---------0---0------0---0-0-0-------|
A|------------------------------------------------------------|
E|---------------------3-----3----------------------3---------|


Verse 2: (Do Verse 1 Chords)

e|--------0-----------------0-----------------------------------|
B|------2-----2-------------1---------------3-------3-----3--2--|
G|----2---------2---------2-----------0-2-----2-----0---0----0--|
D|--0-------0-----0-----0-----------0-----0-----0-----2---------|
A|--------------------------------------------------0--------0--|
E|--------------------3--------0--3-----------------------------|

e|--------0-----------------0----------------------------------------|
B|------2-----2-------------1---------------3-------3-----3--2--2----|
G|----2---------2---------2-----------0-2-----2-----0---0----0--0----|
D|--0-------0-----0-----0-----------0-----0-----0-----2------------0-|
A|--------------------------------------------------0--------0—0-----|
E|--------------------3--------0--3----------------------------------|


Refrain 2: (Do Refrain 1 Chords)

e|---------------------------------------------------------------|
B|--------3-----------------2----------------3--3-----3-----2----|
G|------2---2-------------2----------------0----0---0-0-----0----|
D|----4-------4---------2--------2-------0------2-2---2---2-2----|
A|--2-----------2----------------x--------------0-----0-0---0--0-|
E|-----------------0--2----------2--0--0-------------------------|

e|----------------------------------2-----------------2----------|
B|--------3----------------2-------------0------3-----3---3------|
G|------2---2------------2--------0----------0--0---0-----0--0---|
D|----4-------4--------2--------0------0---0------0--------------|
A|--2-----------2-------------------------------0---------0------|
E|----------------0--2--------3----------------------------------|


Chprus 2: (Do Chorus 1 Chords)

e|--------0-----0----------------------------------------------|
B|------3-3-----1------------------3------3-----3--2-----2-----|
G|----2---------2------------0-2-----2----0---0----0---0-------|
D|--0-----------0---0------0-----0-----0--2-2------2-2---------|
A|--------------x---0---------------------0--------0-----------|
E|--------------3-----0--3-------------------------------------|

e|----------------------------------------------------------|
B|-------3--3----------2--2-----------0--3-----3---2--------|
G|-----2----2--------2----2---------0----0---0-----0--------|
D|---4------4------2------2-------0------2-2-------2--------|
A|-2--------2----------------------------0---------0--------|
E|-------------0-2--------2--2--3---------------------------|




Bridge:  Bm7----A-G#-D/E—-G—Am7sus-Am7-F#sus-F#-
         Bm7----F#m7----D/E----Am7sus-Am7- 

e|------------------------------------------------|
B|--------3----------3----------------------------|
G|------2----------2--------2---------------------|
D|----4----------4----------2---2-------6---------|
A|--2----------2--------2---0---0----0--6---------|
E|---------------------------------0----4---4-0---|

e|--------2--------------------------------------------------|
B|--------3----------3--------3--3-----3--2-----2------------|
G|------0----------0--------0--------0--------0----4---4--3--|
D|----0----------0--------0--------2--------2--------4-------|
A|--0----------------------------0--------0------------------|
E|--0----------3-----------------------------------2------2--|

e|--------------------------------------------------------------------|
B|--3-----3----------------3------------------2-----------------------|
G|------2-----2---2------2-----2------------2------2------------------|
D|----4-----4---4------4-------4----------2------2-------2-2---2-2----|
A|--2----------------2------------2-----------------------------------|
E|----------------------------------0---2-------------2--2---2---2-0--|

e|--------2-----------2---------------------------------------|
B|--3-----3-----3-----3---3-----3-----3-----2-----------------|
G|--0---0-0-----0---0-0-------0-----0---0---0-----------------|
D|--0-0-0-0-----0-0-0-0-----2-----2---------2-----------------|
A|--x-x-x-x-----x-x-x-x---0-----------------0-----------------|
E|--0-0-0-0-----0-0-0-0---------------------------------------|

Chorus 3: DM9--FM7/G--GM7--Am7sus-Am7-
          Bm7--F#m7--G--Am7sus-Am7-
          Bm7-DM9-GM7-Am7sus-Am7-
          Bm7--F#m7--G--Am7sus-Am7-   
e|--------0--------0----------------------------------------|
B|------2--------1-------------------3------3-----3--2------|
G|----2------------------------0-2-----2--------0-----------|
D|--0----------0------0------0-----0-----0----2-------------|
A|--------------------0---------------------0--------0------|
E|-----------3----------0--3--------------------------------|

e|-------------------------------------------------------|
B|--3--3-----------2-----------0—3-------3----2----------|
G|--2--2---------2-----------0----------0----------------|
D|-------------2-----------0----------2------------------|
A|--2--2----------------------------0---------0----------|
E|-----------2-----------3-------------------------------|

e|---------------------------0------------------------------------|
B|--3------------3-----1-----1----------------3------3-----3—-2---|
G|------2--------2-----0---0----0-------0-2-----2--------0--------|
D|----4---0----0---0---0-0------0-----0-----0-----0----2----------|
A|--2------------------------------------------------0--------0---|
E|------------------------------0-0-3-----------------------------|

e|----------------------------------------------------------|
B|--------3----------2---------0----3------------2----------|
G|------2----------2---------0--------------0----0----------|
D|----4----------2---------0-----------2---------2----------|
A|--2-------------------------------0------------0----------|
E|-------------2---------3----------------------------------|

Outro:  BM7+D-Amsus+D-D--

e|-----------------------------0h1----------------------0---5----|
B|--------3-----3----3-----3-------3-----------------2------3----|
G|------2-----2---2------2-------------2----------2---------2----|
D|----0-----0----------0-------------------3---0------------0----|
A|--1----------------0-------------------------------------------|
E|---------------------------------------------------------------|

If ever you wondered if you touched my soul,yes you do
Since I met you I'm not the same
You bring life to everything I do
Just the way you say hello
With one touch I can't let go
Never thought I'd fall in love with you...

Chorus:
Because of you, my life has changed,
thank you for the love and the joy you bring
Because of you, I feel no shame, 
I'll tell the world it's because of you

Verse 2:
Sometimes I get lonely and all I gotta do is think of you
You captured something inside of me
You make all of my dreams come true
It's not enough that you love me for me
You reached inside and touched me eternally
I love you best explains how I feel for you...

Chorus:
Because of you, my life has changed, 
thank you for the love and the joy you bring
Because of you, I feel no shame, 
I'll tell the world it's because of you

Bridge:
The magic in your eyes
True love I can't deny
When you hold me I just lose control
I want you to know that I'm never letting go
You mean so much to me I want the world to see,
It's because of you

Chorus:
Because of you, my life has changed, 
thank you for the love and the joy you bring
Because of you, I feel no shame, 
I'll tell the world it's because of you
My life has changed 
thank you for the love and the joy you bring
Because of you, I feel no shame, 
I'll tell the world it's because of you...
Добавлено: 09.07.2012
Другие материалы по этой песне:
  • Аккорды и текст

Страница создана 09.07.2012
http://primanota.ru/jed-madela/because-of-you-chords.htm
Привет, Гость.
Предлагаем пройти революционный курс по гитаре.
Подарок от PrimaNota.Ru, забирай!