PrimaNota.ru - самый крупный в мире бесплатный архив песенных текстов, аккордов, табулатур и нот


Jebediah - No sleep - аккорды и текст, видео

Регистрация Запомнить меня
Войти через:  Facebook Google Twitter Vk Yandex Mail.ru

Jebediah - No sleep - аккорды и текст, видео

Печатать
Просмотров: 88
No sleep
Jebediah


Song: No Sleep
Artist: Jebediah
Album: Braxton Hicks (July 2004)
Tabbed: Logan (kazza11@webace.com.au)

^ = Strum up
~ = Stacatto (Short)

CHORDS							SONG STRUCTURE

      A    Dm   B    Em   C#				Intro x 4	
e|----5----5----7----7----10----			Verse 1
B|----5----6----7----8----10----			Chorus
G|----6----7----8----9----11----			Verse 2
D|----7----7----9----9----12----			Chorus x 2
A|----7----5----9----7----12----			Bridge 
E|----5----X----7----X----10----			Chorus x 2



Intro amp; Verse
    B                 C#   B   C#   B    A                   Dm   A   Em  B
               ^				       ^
e|--7---7---7--7--7---10~--7~--10~--7~---5--5---5---5--5--5---5~--5~--7~--7~--|
B|--7---7---7--7--7---10~--7~--10~--7~---5--5---5---5--5--5---6~--5~--6~--7~--|
G|--8---8---8--8--8---11~--8~--11~--8~---6--6---6---6--6--6---7~--6~--8~--8~--|
D|--9---9---9--9--9---12~--9~--12~--9~---7--7---7---7--7--7---7~--6~--8~--9~--|	x 4
A|--9---9---9--9--9---12~--9~--12~--9~---7--7---7---7--7--7---5~--7~--7~--9~--|
E|--7---7---7--7--7---10~--7~--10~--7~---5--5---5---5--5--5---X---5~--X---7~--|



VERSE

B		  C#  B  C#  B
You got your very own Watergate
A		Dm  A  Em  B
There ain't no easy way out
B		  C#  B  C#  B
And if you wanna be social oh yeah
A		Dm  A  Em  B
You better scream when you shout
B		  C#  B  C#  B
I'll take you out where you wanna go
A 		Dm  A  Em  B
Yeah we can buy us some thrills
B		  C#  B  C#  B
Ooh, it's not the size of the night out oh no
A		Dm  A  Em  B
It's the size fo the pills



CHORUS

B     	 C# 	  A
Come on  Come on  Come on 
Dm   A   Em  B
No sleep Sunday
B	 C#	  A
Come on  Come on  Come on 
Dm   A   Em  B



VERSE 2
(Same as Verse 1)
	
We don't do it to get away
Only to Amplifier
Yeah we don't wanna get fucked up oh no
We just wanna get high
So come on  Come on 
I got a feelin' it won't take long
Get out  Cut loose 
I got a feelin' you know what to do



CHORUS repeated twice


BRIDGE
    B
       ^          ^	      ^
e|--7--7--7---10--10--10---5--5--5---5--5--5--7--7--7--|
B|--7--7--7---10--10--10---5--5--5---6--6--5--8--8--7--|
G|--8--8--8---11--11--11---6--6--6---7--7--6--9--9--8--|
D|--9--9--9---12--12--12---7--7--7---7--7--7--9--9--9--| x 2
A|--9--9--9---12--12--12---7--7--7---5--5--7--7--7--9--|
E|--7--7--7---10--10--10---5--5--5---X--X--5--X--X--7--|

B   C#   A   Dm  A  Em  B            
Oh, it's all comin' back to me
B   C#   A   Dm  A  Em  B
Oh Saturday
B   C#   A   Dm  A  Em  B
Oh yeah
B   C#   A   Dm  A  Em  B
Oh come on  come one 

B   C#   A   Dm  A  Em  B
Ooo Ooo yeah
B   C#   A   Dm  A  Em  B
Ooo Ooo yeah


B     	 C# 	  A
Come on  Come on  Come on 
Dm   A   Em  B
No sleep Sunday oh yeah come on
B	 C#	  A
Come on  Come on  Come on 
Dm   A   Em  B
No sleep Sunday allright

B	  B ^	
Ooh yeah, awwoh 


That's about right, please email me for corrections. 
The worst thing is wrong tabs, so email me ASAP if there are any.

Добавлено: 21.12.2013
Другие материалы по этой песне:
  • Аккорды и текст

Страница создана 21.12.2013
http://primanota.ru/jebediah/no-sleep-chords.htm
Привет, Гость.
Предлагаем пройти революционный курс по гитаре.
Подарок от PrimaNota.Ru, забирай!