PrimaNota.ru - самый крупный в мире бесплатный архив песенных текстов, аккордов, табулатур и нот


Jean-michel Jarre - Oxygene IV - таба, видео

Регистрация Запомнить меня
Войти через:  Facebook Google Twitter Vk Yandex Mail.ru

Jean-michel Jarre - Oxygene IV - таба, видео

Печатать
Просмотров: 293
As recorded by Jean Michel Jarre
                         (Released as a Single in 1976)

Transcribed by B M

Gtr I (E A D G B E) - 'Untitled'
Gtr II (E A D G B E) - 'synth 2'

  Q=130(8=s8)
 4/4
  Gtr I
  Wx4                   Q.    E E  E  +E   E    +W
|---------------------|-8--------------------|---------|
|---------------------|----------------------|---------|
|---------------------|------12-8-12-(12)----|---------|
|---------------------|-------------------10-|-(10)----|
|---------------------|----------------------|---------|
|---------------------|----------------------|---------|


  Q.    E E  E  +E   E    +W            Q.    E E  E  +E  E   +W
|-8--------------------|-------------|----------------------|--------|
|----------------------|-------------|-11----10-8-10-(10)---|--------|
|------12-8-12-(12)----|-------------|--------------------7-|-(7)----|
|-------------------10-|-(10)--------|----------------------|--------|
|----------------------|-------------|----------------------|--------|
|----------------------|-------------|----------------------|--------|


  Q.    E E  E  +E   E    +W            Q.    E E  E  +E  E   +W
|-8--------------------|-------------|----------------------|--------|
|----------------------|-------------|-11----10-8-10-(10)---|--------|
|------12-8-12-(12)----|-------------|--------------------7-|-(7)----|
|-------------------10-|-(10)--------|----------------------|--------|
|----------------------|-------------|----------------------|--------|
|----------------------|-------------|----------------------|--------|


   E E  E  E  +H        E E  E  E  +H       Q.    E E  E  +E   E    +W
|--------------------|--------------------|-8--------------------|---------|
|-10-8---------------|-10-8---------------|----------------------|---------|
|------10------------|------10------------|------12-8-12-(12)----|---------|
|---------10-(10)----|---------10-(10)----|-------------------10-|-(10)----|
|--------------------|--------------------|----------------------|---------|
|--------------------|--------------------|----------------------|---------|


  Q.    E E  E  +E   E    +W            Q.    E E  E  +E  E   +W
|-8--------------------|-------------|----------------------|--------|
|----------------------|-------------|-11----10-8-10-(10)---|--------|
|------12-8-12-(12)----|-------------|--------------------7-|-(7)----|
|-------------------10-|-(10)--------|----------------------|--------|
|----------------------|-------------|----------------------|--------|
|----------------------|-------------|----------------------|--------|


   E E  E  E  +H        E E  E  E  +H       Q.    E E  E  +E   E    +W
|--------------------|--------------------|-8--------------------|---------|
|-10-8---------------|-10-8---------------|----------------------|---------|
|------10------------|------10------------|------12-8-12-(12)----|---------|
|---------10-(10)----|---------10-(10)----|-------------------10-|-(10)----|
|--------------------|--------------------|----------------------|---------|
|--------------------|--------------------|----------------------|---------|


  Q.    E E  E  +E   E    +W            Q.    E E  E  +E  E   +W
|-8--------------------|-------------|----------------------|--------|
|----------------------|-------------|-11----10-8-10-(10)---|--------|
|------12-8-12-(12)----|-------------|--------------------7-|-(7)----|
|-------------------10-|-(10)--------|----------------------|--------|
|----------------------|-------------|----------------------|--------|
|----------------------|-------------|----------------------|--------|


   E E  E  E  +H        E E  E  E  +H
|--------------------|--------------------|
|-10-8---------------|-10-8---------------|
|------10------------|------10------------|
|---------10-(10)----|---------10-(10)----|
|--------------------|--------------------|
|--------------------|--------------------|


  |-3-| |-3-|          |-3-| |-3-|
  E E E E E E +H       E E E E E E +H
|---3---3---3-(3)----|---3---3---3-(3)----|
|--------------------|--------------------|
|-5---5---5----------|-5---5---5----------|
|--------------------|--------------------|
|--------------------|--------------------|
|--------------------|--------------------|


  |-3-| |-3-|          |-3-| |-3-|
  E E E E E E +H       E E E E E E +H
|---6---6---6-(6)----|---6---6---6-(6)----|
|--------------------|--------------------|
|-7---7---7----------|-7---7---7----------|
|--------------------|--------------------|
|--------------------|--------------------|
|--------------------|--------------------|


   |-3--| |-3--|           |-3--| |-3--|
   E E  E E  E E +H        E E  E E  E E +H
|----8----8----8-(8)----|----8----8----8-(8)----|
|-----------------------|-----------------------|
|-10---10---10----------|-10---10---10----------|
|-----------------------|-----------------------|
|-----------------------|-----------------------|
|-----------------------|-----------------------|


    W                  W                  W                  W
||--3----------------|-3----------------|-6----------------|-6----------------|
||o------------------|------------------|------------------|------------------|
||--5----------------|-5----------------|-7----------------|-7----------------|
||-------------------|------------------|------------------|------------------|
||o------------------|------------------|------------------|------------------|
||-------------------|------------------|------------------|------------------|
|
|   Gtr II
|   |-3-|              |-3-|              |-3-|              |-3-|
|   E E E E E +H       E E E E E +H       E E E E E +H       E E E E E +H
||-------------------|------------------|------------------|------------------|
||o------------------|------------------|------------------|------------------|
||--8p7p5-5-0-(0)----|-8p7p5-5-0-(0)----|------------------|------------------|
||-------------------|------------------|-8p7p5-5-0-(0)----|-8p7p5-5-0-(0)----|
||o------------------|------------------|------------------|------------------|
||-------------------|------------------|------------------|------------------|


  1.                                        2.
   W                   W                     W                   W
|--8----------------|--8-----------------||--8----------------|--8----------|
|-------------------|-------------------o||-------------------|-------------|
|-10----------------|-10-----------------||-10----------------|-10----------|
|-------------------|--------------------||-------------------|-------------|
|-------------------|-------------------o||-------------------|-------------|
|-------------------|--------------------||-------------------|-------------|
|
| Gtr II
|  |-3-|               |-3-| |-3-|           |-3-|               |-3-|
|  E E E E E +H        E E E E E E H         E E E E E +H        Q Q Q H
|-------------------|--------------------||-------------------|-------------|
|-------------------|-------------------o||-------------------|-------------|
|----------5-(5)----|--------------5-----||----------5-(5)----|--------5----|
|--7p5p3------------|--7p5p3-7p5p3-------||--7p5p3------------|--7-5-3------|
|--------6----------|-------------------o||--------6----------|-------------|
|-------------------|--------------------||-------------------|-------------|


  Q.    E E  E  +E   E    +W           Q.    E E  E  +E   E    +W
|-8--------------------|-------------|-8--------------------|---------|
|----------------------|-------------|----------------------|---------|
|------12-8-12-(12)----|-------------|------12-8-12-(12)----|---------|
|-------------------10-|-(10)--------|-------------------10-|-(10)----|
|----------------------|-------------|----------------------|---------|
|----------------------|-------------|----------------------|---------|


   Q.    E E  E  +E  E   +W            E E  E  E  +H        E E  E  E  +H
|----------------------|------------|--------------------|--------------------|
|-11----10-8-10-(10)---|------------|-10-8---------------|-10-8---------------|
|--------------------7-|-(7)--------|------10------------|------10------------|
|----------------------|------------|---------10-(10)----|---------10-(10)----|
|----------------------|------------|--------------------|--------------------|
|----------------------|------------|--------------------|--------------------|


  Q.    E E  E  +E   E    +W           Q.    E E  E  +E   E    +W
|-8--------------------|-------------|-8--------------------|---------|
|----------------------|-------------|----------------------|---------|
|------12-8-12-(12)----|-------------|------12-8-12-(12)----|---------|
|-------------------10-|-(10)--------|-------------------10-|-(10)----|
|----------------------|-------------|----------------------|---------|
|----------------------|-------------|----------------------|---------|


   Q.    E E  E  +E  E   +W            E E  E  E  +H        E E  E  E  +H
|----------------------|------------|--------------------|--------------------|
|-11----10-8-10-(10)---|------------|-10-8---------------|-10-8---------------|
|--------------------7-|-(7)--------|------10------------|------10------------|
|----------------------|------------|---------10-(10)----|---------10-(10)----|
|----------------------|------------|--------------------|--------------------|
|----------------------|------------|--------------------|--------------------|


  |-3-| |-3-|          |-3-| |-3-|
  E E E E E E +H       E E E E E E +H
|---3---3---3-(3)----|---3---3---3-(3)----|
|--------------------|--------------------|
|-5---5---5----------|-5---5---5----------|
|--------------------|--------------------|
|--------------------|--------------------|
|--------------------|--------------------|


  |-3-| |-3-|          |-3-| |-3-|
  E E E E E E +H       E E E E E E +H
|---6---6---6-(6)----|---6---6---6-(6)----|
|--------------------|--------------------|
|-7---7---7----------|-7---7---7----------|
|--------------------|--------------------|
|--------------------|--------------------|
|--------------------|--------------------|


   |-3--| |-3--|           |-3--| |-3--|
   E E  E E  E E +H        E E  E E  E E +H
|----8----8----8-(8)----|----8----8----8-(8)----|
|-----------------------|-----------------------|
|-10---10---10----------|-10---10---10----------|
|-----------------------|-----------------------|
|-----------------------|-----------------------|
|-----------------------|-----------------------|


  W                  W                  W                  W
|-3----------------|-3----------------|-6----------------|-6----------------|
|------------------|------------------|------------------|------------------|
|-5----------------|-5----------------|-7----------------|-7----------------|
|------------------|------------------|------------------|------------------|
|------------------|------------------|------------------|------------------|
|------------------|------------------|------------------|------------------|
|
| Gtr II
| |-3-|              |-3-|              |-3-|              |-3-|
| E E E E E +H       E E E E E +H       E E E E E +H       E E E E E +H
|------------------|------------------|------------------|------------------|
|------------------|------------------|------------------|------------------|
|-8p7p5-5-0-(0)----|-8p7p5-5-0-(0)----|------------------|------------------|
|------------------|------------------|-8p7p5-5-0-(0)----|-8p7p5-5-0-(0)----|
|------------------|------------------|------------------|------------------|
|------------------|------------------|------------------|------------------|


   W                   W
|--8----------------|--8------------------|
|-------------------|---------------------|
|-10----------------|-10------------------|
|-------------------|---------------------|
|-------------------|---------------------|
|-------------------|---------------------|
|
| Gtr II
|  |-3-|               |-3-| |-3-|
|  E E E E E +H        E E E E E E E Q.
|-------------------|---------------------|
|-------------------|---------------------|
|----------5-(5)----|--------------5------|
|--7p5p3------------|--7p5p3-7p5p3---3----|
|--------6----------|---------------------|
|-------------------|---------------------|


  W                    W
|-3------------------|-3-------------------|
|--------------------|---------------------|
|-5------------------|-5-------------------|
|--------------------|---------------------|
|--------------------|---------------------|
|--------------------|---------------------|
|
| |-3-|                |-3-|
| E E E E E +E  Q.     E E E E E +E  E E E
|--------------------|---------------------|
|--------------------|---------------------|
|-8p7p5-5-0-(0)-8----|-8p7p5-5-0-(0)-8-7-5-|
|--------------------|---------------------|
|--------------------|---------------------|
|--------------------|---------------------|


  Gtr I
  W                    W                      W                W
|-6------------------|-6-------------------|--8-------------|--8-------------|
|--------------------|---------------------|----------------|----------------|
|-7------------------|-7-------------------|-10-------------|-10-------------|
|--------------------|---------------------|----------------|----------------|
|--------------------|---------------------|----------------|----------------|
|--------------------|---------------------|----------------|----------------|
|
| Gtr II
| |-3-| |-3-|          |-3-|                  |-3-| |-3-|      |-3-|
| E E E E E E E Q.     E E E E E +E  E E E    Q Q Q Q Q Q      Q Q Q E Q.
|--------------------|---------------------|----------------|--------5-------|
|--------------------|---------------------|----------------|--6---6---6-----|
|-------------7------|---------------------|--------5---5---|----5-----------|
|-8-7-5-8-7-5---5----|-8-7-5-5-0-(0)-8-7-5-|--7-5-3---7-----|----------------|
|--------------------|---------------------|----------------|----------------|
|--------------------|---------------------|----------------|----------------|


  Gtr I
   W                           W
|--3------------------------|--3-------------------|
|---------------------------|----------------------|
|--5------------------------|--5-------------------|
|---------------------------|----------------------|
|---------------------------|----------------------|
|---------------------------|----------------------|
|
| Gtr II
|  |-3--|
|  E  E E E E +E   E  +E  E    E E  E E +E  E +Q
|-11-10-8-8-------11-(11)---|-11---10-8-(8)--------|
|-----------8-(8)---------8-|----8----------8-(8)--|
|---------------------------|----------------------|
|---------------------------|----------------------|
|---------------------------|----------------------|
|---------------------------|----------------------|


   W                       W
|--6--------------------|--6-----------------------|
|-----------------------|--------------------------|
|--7--------------------|--7-----------------------|
|-----------------------|--------------------------|
|-----------------------|--------------------------|
|-----------------------|--------------------------|
|
|  |-3--|                  |-3--|  |-3--|
|  E  E E E E +E   Q  E    E  E E  E  E E  E Q.
|-----------------------|-----------------10-------|
|-11-10-8-8-------11--8-|-11-10-8-11-10-8----8-----|
|-----------7-(7)-------|--------------------------|
|-----------------------|--------------------------|
|-----------------------|--------------------------|
|-----------------------|--------------------------|


  Gtr I
   W                       W
|--8--------------------|--8----------------*|
|-----------------------|-------------------*|
|-10--------------------|-10----------------*|
|-----------------------|-------------------*|
|-----------------------|-------------------*|
|-----------------------|-------------------*|
|
| Gtr II
|  |-3-|
|  E E E E E +E  E +Q      E E E E E E +Q
|----------8-(8)--------|----------8--------*|
|-10-8-6---------6-(6)--|-10-8-6-----6-(6)--*|
|--------8--------------|--------8----------*|
|-----------------------|-------------------*|
|-----------------------|-------------------*|
|-----------------------|-------------------*|


Duration Legend
---------------
W - whole; H - half; Q - quarter; E - 8th; S - 16th; T - 32nd; X - 64th; a - acciaccatura
+ - note tied to previous; . - note dotted; .. - note double dotted
Uncapitalized letters represent notes that are staccato (1/2 duration)
Irregular groupings are notated above the duration line
Duration letters will always appear directly above the note/fret number it represents the
duration for.  Duration letters with no fret number below them represent rests.  Multi-
bar rests are notated in the form Wxn, where n is the number of bars to rest for.  Low
melody durations appear below the staff

Tablature Legend
----------------
 h   - hammer-on
 p   - pull-off
 b   - bend
 pb  - pre-bend
 r   - bend release (if no number after the r, then release immediately)
 /\  - slide into or out of (from/to "nowhere")
 s   - legato slide
 S   - shift slide
  - natural harmonic
[n]  - artificial harmonic
n(n) - tapped harmonic
 ~   - vibrato
 tr  - trill
 T   - tap
 TP  - trem. picking
 PM  - palm muting
\n/  - tremolo bar dip; n = amount to dip
 \n  - tremolo bar down
 n/  - tremolo bar up
/n\  - tremolo bar inverted dip
 =   - hold bend; also acts as connecting device for hammers/pulls
 <>  - volume swell (louder/softer)
 x   - on rhythm slash represents muted slash
 o   - on rhythm slash represents single note slash

Misc Legend
-----------
 |  - bar
||  - double bar
||o - repeat start
o|| - repeat end
*|  - double bar (ending)
 :  - bar (freetime)
 $  - Segno
 &  - Coda
Tempo markers -  = BPM(8/16=s8/s16), where s8 = swing 8ths, s16 = swing 16ths


Добавлено: 10.05.2012
Другие материалы по этой песне:

Страница создана 10.05.2012
http://primanota.ru/jean-michel-jarre/oxygene-iv-chords.htm
Привет, Гость.
Предлагаем пройти революционный курс по гитаре.
Подарок от PrimaNota.Ru, забирай!