PrimaNota.ru - самый крупный в мире бесплатный архив песенных текстов, аккордов, табулатур и нот


Jean-luc Ponty - Imaginary Voyage - таба, видео

Регистрация Запомнить меня
Войти через:  Facebook Google Twitter Vk Yandex Mail.ru

Jean-luc Ponty - Imaginary Voyage - таба, видео

Печатать
Просмотров: 119
Уроки эстрадного вокала в Санкт-Петербурге
Авторы музыки: Jean-Luc Ponty

-------------------------------------------------------------------------------
                             Imaginary Voyage, Pt. 3 - Jean-Luc Ponty
-------------------------------------------------------------------------------
This is the recurring melody that is played in unison with Ponty's violin.
This took me four days to learn by ear - enjoy getting this one down!


Tabbed by: Donnie Clark
E-mail: cdonnie75@yahoo.com

Tuning: Standard

e|----------------------11-----------------------------------------11-14-14b(16)---11----|
B|----------------11-14----12-----------------------------------12-----------------------|
G|-------------11-------------11-----------------------------11--------------------------|
D|-11-------11-------------------13-----------------------13-----------------------------|
A|-------13-------------------------14-----------------14--------------------------------|
E|---14--------------------------------14-11-14------------------------------------------|

e|-------------------------------------------------------------------------------------------------------|
B|-14--12--11--9---------------11-12-11-9-11-9----9------------------------------------------------------|
G|----------------11--8--11--------------------10--10-8-10-8----8----------------------------------------|
D|-----------------------------------------------------------11---11-8-11-8----8-------------------------|
A|--------------------------------------------------------------------------11---11-8-11-8-6-8-6-4-6-4---|
E|-----------------------------------------------------------------------------------------------------4-|

e|-------------------------------------------------------------------------------------------|
B|-----------------------6-7-6---------------------------------------------------------------|
G|---------------3-5-6-8-------8-6---6-8----6-----8-6-----6----------------------------------|
D|-----------3-6-------------------9----------9-8-----8-6---8-6-4-8-6-4---6-4-----4----------|
A|-----3-4-6------------------------------------------------------------6-----6-4---6-4---6--|
E|---6----------------------------------------------------------------------------------7----|

e|-----------------------------------------------------------------------------------------------11-13-|
B|-----------------------------------------2-----2-4---2-4-6---4-6-9---6-9-11----9-11-14---11-14-------|
G|-------------------------1-----1-3---1-3---1-3-----3-------6-------8--------10---------13------------|
D|-----------1-4-1-3---1-3---1-3-----3-----------------------------------------------------------------|
A|---1-2---4---------4---------------------------------------------------------------------------------|
E|-------4---------------------------------------------------------------------------------------------|

e|--14-13-11-------------------------------------------------------------------------|
B|-----------14-13-11----------------------------------------------------------------|
G|--------------------13-11-10-------------------------------------------------------|
D|-----------------------------13-11-------------------------------------------------|
A|-----------------------------------11----------------------------------------------|
E|-----------------------------------------------------------------------------------|


************************************

| /   slide up
| \   slide down
| h   hammer-on
| p   pull-off
| ~   vibrato
| +   harmonic
| x   Mute note
| b   Bend
| pb  Pre-bend
| br  Bend release
| pbr Pre-bend release
| brb Bend release bend

************************************
Добавлено: 10.08.2015
Другие материалы по этой песне:
  • Аккорды и текст

Страница создана 10.08.2015
http://primanota.ru/jean-luc-ponty/imaginary-voyage-chords.htm
Привет, Гость.
Предлагаем пройти революционный курс по гитаре.
Подарок от PrimaNota.Ru, забирай!