PrimaNota.ru - самый крупный в мире бесплатный архив песенных текстов, аккордов, табулатур и нот


Jean Leloup - Y Lost My Baby - таба, видео

Регистрация Запомнить меня
Войти через:  Facebook Google Twitter Vk Yandex Mail.ru

Jean Leloup - Y Lost My Baby - таба, видео

Печатать
Просмотров: 110
   y lost my baby tab by jean leloup


|----0---0---0----------|
|----1---0---1----------|
|----2---2---2----------|
|----2---2---2----------|
|-0------0-------0------|
|-----------------------|

|----0--0---0-----------|
|----1--0---1-----------|
|----0--0---2-----------|
|----2--2---2----3------|x 2
|-3-----3---------------|
|-----------------------|

|----0---0---0----------0-------1--------1--|
|----1---0---1----------0-------3--------0--|
|----2---2---2----------1-------2--------0--|x 4
|----2---2---2----------2----0-----------0--|
|-0------0--------------2----------------2--|
|--------------------0----------------3-----|

|----0------------0-----1---0-------1---0---1--0-|
|----0------------1-----3---0-------3---1---3--0-|
|----1------------0-----2---1-------2---0---2--1-|
|----2------------2---0-----2-------0---2---0--2-|
|----2-----0-2-3--3---------2----0------3------2-|
|-0------3------------------0------------------0-|

|----0---0---0----------0-------1--------1--|
|----1---0---1----------0-------3--------0--|
|----2---2---2----------1-------2--------0--|x 4
|----2---2---2----------2----0-----------0--|
|-0------0--------------2----------------2--|
|--------------------0----------------3-----|

Добавлено: 09.05.2012
Другие материалы по этой песне:
  • Аккорды и текст

Страница создана 09.05.2012
http://primanota.ru/jean-leloup/y-lost-my-baby-chords.htm
Привет, Гость.
Предлагаем пройти революционный курс по гитаре.
Подарок от PrimaNota.Ru, забирай!