PrimaNota.ru - самый крупный в мире бесплатный архив песенных текстов, аккордов, табулатур и нот


Jean Leloup - Petite Fleur - таба, видео

Регистрация Запомнить меня
Войти через:  Facebook Google Twitter Vk Yandex Mail.ru

Jean Leloup - Petite Fleur - таба, видео

Печатать
Просмотров: 398
  petite fleur ecrite pas jean leloup
 
 traduit en tablature par steve morin

|--------------------11-10--------10---|
|--11--10-----10-13--------11-----11---|
|--12--11--11-----------------12-------|
|--13--12------------------------------|
|--------------------------------------|
|--------------------------------------|

|--------------------------------------|
|-------10-11------10----------11-10-8-|
|----12-------12---9----9-8-9----------|
|-12---------------11------------------|
|--------------------------------------|
|--------------------------------------|

|-----------------3--------------------|
|-7---8---7-------3---------------4-3--|
|-7---8---7-------3-----------2-5------|
|-7---8---7-------5---5--4--4----------|
|---------------------6--5-------------|
|-------------3------------------------|

|----3---------------------------------|
|----3----------------2----------------|
|----3----------------2--------3-2-1p0-|
|----5-----5-7-8-5-7--2--2-1-2---------|
|--------5------------0----------------|
|-3------------------------------------|

|----------------------------3---------|
|----------------------4-----3---------|
|---5/6-6-\5-5-------5---7---3------2--|
|-4/--5-5-\4-4---4-7---------5----5----|
|--5/-6-4-\5-5---------------5--5------|
|---------------------------3----------|

|-------0-----3/-5--10-----------------|
|-------2-----4/-6--6------------------|
|-3-----2-----3/-5--5------------------|
|---5---2-----5/-7--7------------3-----|
|-----0-------3-----5------1-3/4---5---|
|------------------------3-------------|

|--------------------------------------|
|--------------------------------------|
|-------3------------------------------|
|-3-4-5--------------------------------|
|--------------------------------------|
|---------3----------------------------|

pompom020366@hotmail.com
Добавлено: 31.05.2012
Другие материалы по этой песне:
  • Аккорды и текст

Страница создана 31.05.2012
http://primanota.ru/jean-leloup/petite-fleur-chords.htm
Привет, Гость.
Предлагаем пройти революционный курс по гитаре.
Подарок от PrimaNota.Ru, забирай!