PrimaNota.ru - самый крупный в мире бесплатный архив песенных текстов, аккордов, табулатур и нот


Jean Leloup - Jam En Em - таба, видео

Регистрация Запомнить меня
Войти через:  Facebook Google Twitter Vk Yandex Mail.ru

Jean Leloup - Jam En Em - таба, видео

Печатать
Просмотров: 137
  Jam en Em jouer par Jean Leloup

  écrit en tablature par Steve Morin


|----------------------------------|----0-----------------0--|
|-8--7-----------------8--7---5-3--|----------------------0--|
|-------9--8---------9----8---6-4--|-------------2--------1--|
|------------9-9/10-------9---7-5--|-----------2----------2--|
|----------------------------------|-------2/4---------------|
|----------------------------------|-0--------------3b-0-----|

|-------------|--------------------|-------------------------|
|-------------|--------------------|-----7/--5------5/-------|
|-----2-------|---------------7----|-----7/----5----5/-------|
|-------------|-----5---5-7/9--9\--|-------------------------|
|-2/4---------|--/7---7------------|-------------------------|
|-------3b-0--|--------------------|--7-----------5----------|

|------------------|----0-------0--------------|-------------|
|------------------|--------3/5---5-3h5p3--5---|----7------7-|
|--/7-5---5--------|---------------------4---0-|----7------7-|
|-------7---5h7----|---------------------------|-----------7-|
|--------------5h7-|---------------------------|------7h9----|
|------------------|-0----0--------------------|-\7----------|

|----------|------------|------------------------------------|
|--------5-|------------|--12--------------------------------|
|--------5-|------------|--12--12/14-12----12-------------12-|
|----------|------5-----|--12------------14----12h14------12-|
|----------|-\5/7---7---|-<12>-----------------------12h14---|
|-0-\3/5---|----------0-|-<12>-------------------------------|

|------|-------------------|------|--------------------------|
|----7-|-------------------|----5-|------6-------------------|
|----7-|--9-7------------0-|----5-|--5/7---7--5h7p5----------|
|------|------9-8-7--------|------|-----------------7-5------|
|------|------------10-7---|------|---------------------7----|
|-\7---|-------------------|-\5---|-----------------------0--|

|-3-3/5---5--5/7--5-3--------/7-5-7--7p5h7p5-----------------|
|-3-3/5---5--5/7--5-3-----5--/7-5-7----------8-5-------------|
|-------------------------5-----------------------7-7r---4---|
|------------------------------------------------------------|
|------------------------------------------------------------|
|-------3--------------\5------------------------------------|

|----------------0------0-|---------|----0-------------|-----|
|-----------------------0-|------5--|------3/5-3---5---|-----|
|-----------------------7-|------4--|------------4---0-|-----|
|---7p5h7p5---------------|------5--|------------------|-----|
|-----------7------<3>----|------4--|------------------|-----|
|-------------0-----------|-0-5-----|-0----------------|-0-5-|

|----------------------------------12--12-10-----------------|
|-5---5/7--7----\12/13---12-----12-12--12----12-11-10--------|
|-4--------6----\11/12---11-----11-11--11-------------12-----|
|-5--------7----\12/13---12-----12-----12----------------0---|
|-4--------6----\11/12---11-----11-----11--------------------|
|------------------------0---0--0------0-------------------0-|

|------|--------------5-5/7-5-3---0-----------|-------------------0-|
|-12---|---5----------5---------5--/5-3h5p3---|---5--\8-5---5-------|
|-11---|---4-----4----4---------------------0-|---4-------7---------|
|-12---|---5----------5-----------------------|---5-----------0-----|
|-11---|-4---0h4---4--------------------------|-4-------------------|
|----0-|--------------------------------------|------------------0--|

|----------------------------------------|-------------------|
|-12--12/14-12---------------------------|---7-----------9-7-|
|-11-----------14-13~-12----12-----------|---7-------7---9-7-|
|-12---------------------14----12h14-----|-----------7---9-7-|
|-11---------------------------------0---|-------7/9---9-----|
|--------------------------------------0-|-7-----------------|

|--------------------------------------|-3/5---5/7--5-3------|
|-----5----------------------------0---|-3/5---5/7--5-3------|
|-----5----------5-5-7^-7p5------------|---------------------|
|-----5------5-------------7p5---------|---------------------|
|--------5/7---7--------------7p0------|---------------------|
|-0h5--------------------------------0-|-----3----------0----|

|---5--5p0---0--|----------------------0-|-------------------|
|---5-----0h5-5-|----/5-/5/5/5/5-3---5-0-|---3-2h3p2---------|
|---5-----------|------------------4---0-|---2-------4-2-----|
|---------------|------------------------|---4-----------4-0-|
|---------------|------------------------|---2-------------0-|
|-5-------------|-0----------------------|-2-----------------|

|--------------------------0--|------------------|
|-1---1-----------------------|---------------7--|
|--------0-2-0---0-----------|---------------7--|
|---------------2---0h2-------|-----5---5--------|
|---0-------------------------|--/7---7---7------|
|-----------------------0-----|-------------7----|

|-----------------|-----|------------------------|
|-----------------|---5-|-------------0----------|
|-7/9--7----0-----|---5-|------------------------|
|--------9----0---|-----|------5---5-------------|
|-----------------|-----|--5/7---7---------------|
|---------------0-|-5---|----------------0-------|

|-----------------------------|-----------------------------------|
|-12--12----12------------12\-|------12--12-----------------------|
|-12--12----12------------12\-|------12--------12h14p12--12-------|
|--------14----12h14------12\-|------12-----14---------14---12h14-|
|-------------------12h14-----|-----------------------------------|
|-----------------------------|--0--------------------------------|

|--------|------------------------------------------------|
|--------|-12--12/14--12----12-------------12-------------|
|--------|-12--12/14--12----12-------------12-------------|
|--------|-12--12/14--12-14-12--12h14------12-------------|
|-0------|---------------14----------12h14----------------|
|---<12>-|------------------------------------------------|

|--------------------------------|------------------------|
|--------12----------------------|-----7------------------|
|--------12--14-12----12--------|-----7--/9-7------------|
|--------12---------14---12h14\--|-----7-------9-8-7----7-|
|--------------------------------|-------------------10---|
|-0-<12>-------------------------|-0-7--------------------|

|------------------|------------------------0--------0----|
|----5-------5-5---|---------------7-------------3/5---5--|
|----5-------5-5---|-------5-5-----7----------------------|
|----5-------5-5---|-------5-5-----7----------------------|
|------------------|---5h7-----3/7------------------------|
|-5-----3/5--------|----------------------0---0-----------|

|---------------------0--0--------------------------------|
|-3h5p3------------------0--------------------------------|
|-------4-3-2------------1--------------------------------|
|--------------5-2-0-----2--------------------------------|
|------------------------2--------------------------------|
|------------------------0--------------------------------|

pompom020366@hotmail.com
Добавлено: 06.06.2012
Другие материалы по этой песне:
  • Аккорды и текст

Страница создана 06.06.2012
http://primanota.ru/jean-leloup/jam-en-em-chords.htm
Привет, Гость.
Предлагаем пройти революционный курс по гитаре.
Подарок от PrimaNota.Ru, забирай!