PrimaNota.ru - самый крупный в мире бесплатный архив песенных текстов, аккордов, табулатур и нот


Jean Leloup - Comme La Vie Est Laide - таба, видео

Регистрация Запомнить меня
Войти через:  Facebook Google Twitter Vk Yandex Mail.ru

Jean Leloup - Comme La Vie Est Laide - таба, видео

Печатать
Просмотров: 120
comme la vie est laide tab by jean leloup


|---9-11----9-11---9------5-7----5-7---7-|
|-9-------9------9------5------5-----5---|
|----------------------------------------|
|----------------------------------------|x 21
|----------------------------------------|
|----------------------------------------|

|-------------------------------------|
|-------------------------------------|
|-------------------------------------|
|----2------/7-6------------/7-6------|
|-/4---4---------0------/4-------0----|
|-------------------------------------|

|-------------------|
|-------------------|
|-------------------|
|----2------/7-6----|
|-/4---4---------0--|
|-------------------|

|-------------------|
|-------------------|
|-------------------|
|----2------/7-6----|
|-/4---4---------0--|
|-------------------|

|---9-11----9-11---9------5-7----5-7---7-|
|-9-------9------9------5------5-----5---|x2
|----------------------------------------|
|----------------------------------------|
|----------------------------------------|

|-----------------------------|
|-----------------------------|
|-----------------------------|
|---/7-6------------/7-6------|
|-4------0------/4-------0----|
|-----------------------------|

|---------------------|
|---------------------|
|---------------------|
|----2------/7-6------|
|-/4---4---------0----|
|---------------------|

|-------------------|
|-------------------|
|-------------------|
|----2------/7-6----|
|-/4---4---------0--|
|-------------------|







|---------------|
|---------------|
|-6--9----------|
|-6--9--6--9----|x 3
|-4--7--6--9----|
|-------4--7----|

|---9-11----9-11---9------5-7----5-7---7-|
|-9-------9------9------5------5-----5---|
|----------------------------------------|x 4
|----------------------------------------|
|----------------------------------------|
|----------------------------------------|

|-----------------------------|
|-----------------------------|
|-----------------------------|
|---/7-6------------/7-6------|
|-4------0------/4-------0----|
|-----------------------------|

|---------------------|
|---------------------|
|---------------------|
|----2------/7-6------|
|-/4---4---------0----|
|---------------------|

|-------------------|
|-------------------|
|-------------------|
|----2------/7-6----|
|-/4---4---------0--|
|-------------------|

|---------------|
|---------------|
|-6--9----------|
|-6--9--6--9----|x 3
|-4--7--6--9----|
|-------4--7----|

|---9-11----9-11---9------5-7----5-7---7-|
|-9-------9------9------5------5-----5---|
|----------------------------------------|x 4
|----------------------------------------|
|----------------------------------------|
|----------------------------------------|



steve,,,   pompom020366@hotmail.com     pompom@sympatico.ca











Добавлено: 07.03.2012
Другие материалы по этой песне:
  • Аккорды и текст

Страница создана 07.03.2012
http://primanota.ru/jean-leloup/comme-la-vie-est-laide-chords.htm
Привет, Гость.
Предлагаем пройти революционный курс по гитаре.
Подарок от PrimaNota.Ru, забирай!