PrimaNota.ru - самый крупный в мире бесплатный архив песенных текстов, аккордов, табулатур и нот


Jc Brooks And The Uptown Sound - River - аккорды и текст, видео

Регистрация Запомнить меня
Войти через:  Facebook Google Twitter Vk Yandex Mail.ru

Jc Brooks And The Uptown Sound - River - аккорды и текст, видео

Печатать
Просмотров: 85
River
Jc Brooks And The Uptown Sound
This is the song "River" by JC Brooks and the Uptown Sound
http://jcbrooksandtheuptownsound.com/

Song tabbed by Johnny Cosmic
http://johnnycosmic.bandcamp.com/


          A                               C#
I wake up early, but I just barely got to bed
                D                  B7
I don't make no money, I do favors instead
               A                          C#
Now it's not a warning, but stay outta my way
                 D                            B7
See if I were to love you, You'd be gone in a day

(Chorus)
A             D                 F#m7      E       D
 The river is varied (3xs)   It goes from high to low
   F#m7      E       A
It goes from high to low

          A                     C#
I asked a question, I said am I alone
                   D                         B7
If a house remains vacant, can you call it a home?
                   A                                    C#
And I wont make no promise, but it's been coming on for years and years
                D           B7
If I can't have you, I will drown in a river of my own tears

(Chorus)

(Bridge)
    F#m
And when you feel you wanna die, the world is rushing by
                                   D
You're low, You're high, you gotta hold on
   F#m
No matter what they say, you gotta find a way to make it thru the day
    D
You hold on
F                                                                C
Oh when your heart is lost and can't be found, you find a way to hold on
          F                                                          G    G#
You just, you grab on to whatever happens to be around yeah, and you hold on

          A#                             D
I wake up early, I can't sleep the night through
      D#                                         C7
I get soo high, .. so low..  the one constant is you, yeah yeah yeah


(Chorus)
A#            D#                 Gm7      F       D#
 The river is varied (3xs)   It goes from high to low
   Gm7       F       A#
It goes from high to low


CHORDS

[verse]

    A       C#      D      B7

e|--5-----------------------7--|
B|--5--------6------7-------7--|
G|--6--------6------7-------8--|
D|--7--------6------7-------7--|
A|--7--------4------5-------9--|
E|--5-----------------------7--|



[chorus]

    A   A#     D     D#    F#m7    Gm7    E   F

e|--5---6------------------9-------10-------------|
B|--5---6------7-----8-----10------11-----9---10--|
G|--6---7------7-----8-----9-------10-----9---10--|
D|--7---8------7-----8-----11------12-----9---10--|
A|--7---8------5-----6-----9-------10-----7---8---|
E|--5---6---------------------------------0-------|


[bridge]

   F#m     D    F    C    G    G#

e|--2------2----1----0----3----4-------|
B|--2------3----1----1----3----4-------|
G|--2------2----2----0----4----5-------|
D|--4------0----3----2----5----6-------|
A|--4-----------3----3----5----6-------|
E|--2-----------1---------3----4-------|
Добавлено: 15.09.2013
Другие материалы по этой песне:
  • Аккорды и текст

Страница создана 15.09.2013
http://primanota.ru/jc-brooks-and-the-uptown-sound/river-chords.htm
Привет, Гость.
Предлагаем пройти революционный курс по гитаре.
Подарок от PrimaNota.Ru, забирай!