PrimaNota.ru - самый крупный в мире бесплатный архив песенных текстов, аккордов, табулатур и нот


Jbo - Verteidiger Des Bldsinns - таба, видео

Регистрация Запомнить меня
Войти через:  Facebook Google Twitter Vk Yandex Mail.ru

Jbo - Verteidiger Des Bldsinns - таба, видео

Печатать
Просмотров: 80
J.B.O. – Verteidiger des Blödsinns
Tuning – Standart


Intro:

E||-----|-----|-----|
B||-----|-----|-----|
G||--8--|--6--|--4--|
D||--8--|--6--|--4--|
A||--6--|--4--|--2--|
E||-----|-----|-----|

Part:1

E---------------------------------------------------------|
B---------------------------------------------------------|
G---8xxxx8xx8xxxxxxxxxxxxx8xxxx8xx4--4--4--4--6-----------|
D---8xxxx8xx8xxxxxxxxxxxxx8xxxx8xx4--4--4--4--6-----------|
A---6xxxx6xx6xxxxxxxxxxxxx6xxxx6xx2--2--2--2--4-----------|
E---------------------------------------------------------|

Part:2

E----------------------------------------------------------|
B----------------------------------------------------------|
G-4--6--8xxxx8xx8xxxxxxxxxxxxx8xxxx8xx4--4--4--4--6--------|
D-4--6--8xxxx8xx8xxxxxxxxxxxxx8xxxx8xx4--4--4--4--6--------|
A-2--4--6xxxx6xx6xxxxxxxxxxxxx6xxxx6xx2--2--2--2--4--------|
E----------------------------------------------------------|

Part:3
Ein schwerer Kampf steht uns bevor………………
E-----------------------------------------------------------|
B-----------------------------------------------------------|
G—x8---x4---x6---x3---x6------------------------------------|
D—x8---x4---x6---x3---x6------------------------------------| 4x
A—x6---x2---x4---x1---x4------------------------------------|
E-----------------------------------------------------------|

Pre Chorus:
Die Schlacht die tobt wie ne zu vor………….
E-----------------------------------------------------------|
B-----------------------------------------------------------|
G------------------------4xx4xx4----6xx6xx------------------|
D----6xx6xx6—--8xx8xx8---4xx4xx4----6xx6xx------------------|
A----6xx6xx6—--8xx8xx8---2xx2xx2----4xx4xx------------------|
E----4xx4xx4—--6xx6xx6--------------------------------------|

Chorus:
Wir sind Verteidiger……….
E----------------------------------------------------------|
B----------------------------------------------------------|
G---8--4-----6/3-------8--4--------------------------------|
D---8--4--4—-6/3-------8--4--6---8-------------------------| 2x
A---6--2--4—-4/1-------6--2--6---8-------------------------|
E---------2------------------4---6-------------------------|


Again Part:1-Part:2-Part:3-Pre Chorus – Chorus


Solo:
Improve...Let's Rock :)


Clean:

E-----------------------------------------------------------|
B-----------------------------------------------------------|
G------8------8---------------------------------------------|
D--------8------8----8--------------------------------------| 4x
A----6-----6------6-----------------------------------------|
E-----------------------------------------------------------|

Oh Freuden Götter………..
E-----------------------------------------------------------|
B-----------------------------------------------------------|
G-----8-------8----------4--------4-------------------------|
D-------8-------8---8-------4--------4----4-----------------|
A--6------6-------6----2------2--------2--------------------|
E-----------------------------------------------------------|

E-----------------------------------------------------------|
B-----------------------------------------------------------|
G----------------------------------6----------6-------------|
D----4---------4----------------------6----------6-----6----|
A-------4--------4------4------4----------4---------4-------|
E-2-------2---------2---------------------------------------|


So blicke ich zu euch empor………….
E----------------------------------------------------------|
B----------------------------------------------------------|
G----------------------------------------------------------|
D-----6---------6--------------8-------8-------------------|
A--------6---------6----6---------8------8---8-------------|
E--4--------4--------4------6-------6-----6----------------|

Und lausch dem Männer Chor…………
E-----------------------------------------------------------|
B-----------------------------------------------------------|
G---4------4--------------6------6---------6----------------|
D-----4------4---4----------6------6---6---6----------------|
A-2-----2------2-------4-------4-----4-----4----------------|
E-----------------------------------------------------------|

Again Chorus + Solo Have Fun.
Добавлено: 06.06.2012
Другие материалы по этой песне:

Страница создана 06.06.2012
http://primanota.ru/jbo/verteidiger-des-bldsinns-chords.htm
Привет, Гость.
Предлагаем пройти революционный курс по гитаре.
Подарок от PrimaNota.Ru, забирай!