PrimaNota.ru - самый крупный в мире бесплатный архив песенных текстов, аккордов, табулатур и нот


Jbo - Mey Lalde Is Im Playboy Drin - таба, видео

Регистрация Запомнить меня
Войти через:  Facebook Google Twitter Vk Yandex Mail.ru

Jbo - Mey Lalde Is Im Playboy Drin - таба, видео

Печатать
Просмотров: 96
Kevin Pahl

Mei Alde is im Playboy drin
Fis Dur

3x
E|----------------------------------------|
H|----------------------------------------|
G|-3--6--3--------------------------------|
D|---------6-4-4--4--4--4----4-6--4--4--6-|
A|-----------------6-------6--------------|
E|----------------------------------------|



Verse:

   F#      H      F#      H   F#
E|------------------------2---2--|
H|------------------------4---2--|
G|---------4-4------------4---3--|
D|-4--4----4-4----4--4---(4)-(4)-|
A|-4--4----2-2----4--4-----------|
E|-2--2-----------2--2-----------|

Es ist wahr, ich schwoer' es euch - glaubt mir, ich hab's erlebt, 
Sie war ja so ein Engel, ich war ja so verliebt. 
Eines Tages schaute ich - ich bin ja nur ein Mann - 
Eins von diesen schoenen, bunten Busenheftchen an. 


Muted (Ged䭰ft):
F#        	 			    G#             H       C#
Ich schlug auch gleich die Mittelseite auf, um mich anzuregen,

F#        	 			    G#             H       C# 
Da schaut mir doch - ich werd' verrueckt - mein Engel nackt entgegen. 

F# 		      (E)
Ich glaub' ich spinn'! 
H				   
Verraten und verkauft ich bin!       G|-3--6--3---------|
F#			     (E)     D|---------6-4-4---|
Mei Alde is' im Playboy drin! 
H
Mei Alde is' im Playboy drin! 




   F#      H      F#      H   F#
E|------------------------2---2--|
H|------------------------4---2--|
G|---------4-4------------4---3--|
D|-4--4----4-4----4--4---(4)-(4)-|
A|-4--4----2-2----4--4-----------|
E|-2--2-----------2--2-----------|

Sie war so rein und anstaendig und quatschte von Moral, 
Sie einmal ins Bett zu kriegen, das war die reinste Qual. 
Und wenn sie dann doch einmal in meinen Armen lag, 
Dann herrschte immer Dunkelheit, ja selbst am hellen Tag. 

F#        	 	             G#           H       C#
Und jetzt - was ist? - da zeigt sie ihre nackten Titten 

F#        	 	          G#             H       C#
Im Playboy, jeder kann es seh'n, auf der Seid'n in der Midd'n. 



F# 		      (E)
Ich glaub' ich spinn'! 
H				   
Verraten und verkauft ich bin!       G|-3--6--3---------|
F#			     (E)     D|---------6-4-4---|
Mei Alde is' im Playboy drin! 
H
Mei Alde is' im Playboy drin! 

F#           (E)     
Nah nah nanananah 
H
nananananananananah... 


   F#      H      F#      H   F#
E|------------------------2---2--|
H|------------------------4---2--|
G|---------4-4------------4---3--|
D|-4--4----4-4----4--4---(4)-(4)-|
A|-4--4----2-2----4--4-----------|
E|-2--2-----------2--2-----------|

Rache! - schwoer' ich und sag' mir: Was die kann, kann ich auch! 
Ich hol' mir jetzt 'ne Polaroid und knipse meinen Bauch (und mehr!). 
Im Hause ist zu wenig Licht, drum geht's in die Natur, 
Der Schniedel glaenzt im Sonnenlicht - es fehlt das Puder nur. 

F#        	 	  G#             H        C#
Ist egal, ich will ja nur meine Freundin schocken, 

F#        	            G#                    H       C#
Doch zwei Wochen spaeter, da haut's mich von den Socken: 


F# 		      (E)
Ich glaub' ich spinn'! 
H				   
Verraten und verkauft ich bin!       G|-3--6--3---------|
F#			     (E)     D|---------6-4-4---|
Der Veit is' jetzt im Playgirl drin! 
H
Ich bin jetzt im Playgirl drin! 


Nah nah nanananah 
nananananananananah...  H  G#  F#  usw


Добавлено: 24.03.2012
Другие материалы по этой песне:
  • Аккорды и текст

Страница создана 24.03.2012
http://primanota.ru/jbo/mey-lalde-is-im-playboy-drin-chords.htm
Привет, Гость.
Предлагаем пройти революционный курс по гитаре.
Подарок от PrimaNota.Ru, забирай!