PrimaNota.ru - самый крупный в мире бесплатный архив песенных текстов, аккордов, табулатур и нот


Jbo - Alabatsch - таба

Регистрация Запомнить меня
Войти через:  Facebook Google Twitter Vk Yandex Mail.ru

Jbo - Alabatsch - таба

Печатать
Просмотров: 126
J.B.O.
URL:www.jbo.de


INTRO: (Distroyed)

E---------------------------------------
B---------------------------------------
G---------------------------------------
D---5-5---2---5-5---2---5-5--2--7/5-2---
A---5-5---2---5-5---2---5-5--2--7/5-2---
E---3-3---0---3-3---0---3-3--0--5/3-0---
   [P.M.]    [P.M.]    [P.M.]  



E-------------------------------------------
B-------------------------------------------
G-------------------------------------------
D--2-2---5-5---2-2---5-5---7-7--9-9---(12)--
A--2-2---5-5---2-2---5-5---7-7--9-9---(12)--
E--0-0---3-3---0-0---3-3---5-5--7-7---(10)--
  (Kleine Kinder...



E-------------------
B-------------------
G-------------------
D-10--------8-------
A-10--------8-------
E-8---------6-------
 (Das Alles...)

I don't know the other parts of this song but I
will try to complete it.

Inugshugs Guitarist:   Dani Emil Rüger
Добавлено: 04.04.2012
Другие материалы по этой песне:
  • Аккорды и текст

Страница создана 04.04.2012
http://primanota.ru/jbo/alabatsch-chords.htm
Привет, Гость.
Предлагаем пройти революционный курс по гитаре.
Подарок от PrimaNota.Ru, забирай!