PrimaNota.ru - самый крупный в мире бесплатный архив песенных текстов, аккордов, табулатур и нот


The Jazzifiers - Crazy - аккорды и текст, видео

Регистрация Запомнить меня
Войти через:  Facebook Google Twitter Vk Yandex Mail.ru

The Jazzifiers - Crazy - аккорды и текст, видео

Печатать
Просмотров: 34
Crazy
The Jazzifiers
-------------------------------------------------------------------------------
                             CRAZY - The Jazzifiers
-------------------------------------------------------------------------------
Tabbed by: fikus-kukis
E-mail: fikuskukis@atlas.sk

This song is actually cover version of Gnarls Barkley's Crazy made by
The Jazzifiers (Daniel Zamfir vocal & Marius Pop guitar) posted on YouTube at:
http://youtu.be/D7-jZJ_ZZns

I did only chord progression - for better feel of picking/plucking/strumming/
percussive sound I recommend to watch & listen their video through link noted
before - it isn't that hard to figure it out.

I'm kinda new to jazz chords and harmonies so I couldn't name some of chords
properly. Nevertheless they should sound fine. In case you are able to name
themselves, please send me an email and I try to improve them.


Tuning: standard guitar tuning

CHORDS USED:
      C?     D#7M     Xm?     F?      G7     C7M  
e|---------------------------------------------------------------------------|
B|----4-------8-------4-------1-------3-------5------------------------------|
G|----3-------7-------5-------2-------4-------4------------------------------|
D|----1-------8-------5-------3-------3-------5------------------------------|
A|----3-------6-------------------------------3------------------------------|
E|--------------------4-------3-------3--------------------------------------|



CHORDS PROGRESSIONS:

Intro:
4x
C?

Verse & Chorus:
C? C? D#7M   D#7M   Xm? Xm? F? G7

Post-Chorus:
C7M   C7M   Xm? Xm? D#7M   D#7M   F? G7





SONG COMPOSITION:

Intro

2x Verse
Chorus
Post-Chorus

Verse
Chorus
Post-Chorus

Verse
2x Chorus

Ends on C?
Добавлено: 12.08.2015
Другие материалы по этой песне:
  • Аккорды и текст

Страница создана 12.08.2015
http://primanota.ru/jazzifiers/crazy-chords.htm
Привет, Гость.
Предлагаем пройти революционный курс по гитаре.
Подарок от PrimaNota.Ru, забирай!