PrimaNota.ru - самый крупный в мире бесплатный архив песенных текстов, аккордов, табулатур и нот


Jazz Standard - All Of Me - таба, видео

Регистрация Запомнить меня
Войти через:  Facebook Google Twitter Vk Yandex Mail.ru

Jazz Standard - All Of Me - таба, видео

Печатать
Просмотров: 355
-------------------------------------------------------------------------------
                             ALL OF ME - Band Name
-------------------------------------------------------------------------------
Tabbed by:DKalamarides
E-mail:

Tuning: Standard
Chords listed above are played in the Background

    C7                 E7         A7              D7               
e|--8--------8-10-8--7-------------------------------------------------------|
B|----8-----------------8--------\10--8-----------11-10--8-10b--8------------|
G|------9~----------------9-------------9---9-8-9-----------------10-11-10-9-|
D|---------------------------------------------------------------------------|
A|---------------------------------------------------------------------------|
E|---------------------------------------------------------------------------|

    E7                 A7         D7              D7                  G7
e|------------------7-8--10~~---8----8--7--------------7h8p7----------7-x-7~-|
B|----------------9---------------10-------11-10~~--11-------10-x-10~--------|
G|--9-8-7--9b---9------------------------------------------------------------|
D|---------------------------------------------------------------------------|
A|---------------------------------------------------------------------------|
E|---------------------------------------------------------------------------|

    C7                 E7         A7              D7  
e|--8--------8-10-8--7-------------------------------------------------------|
B|----8-----------------8--------\10--8-----------11-10--8-10b--8------------|
G|------9~----------------9-------------9---9-8-9-----------------10-11-10-9-|
D|---------------------------------------------------------------------------|
A|---------------------------------------------------------------------------|
E|---------------------------------------------------------------------------|

    F7                   E7      A7            D7          G7             C6 Eb7 D7 G7
e|--\10--8p7-8--10--8----7-------7-------------8-----8h10--10\12--10/12---8--|
B|-------------------------8---8--8\10~~---------10--------------------------|
G|---------------------------9-----------------------------------------------|
D|---------------------------------------------------------------------------|
A|---------------------------------------------------------------------------|
E|---------------------------------------------------------------------------|



************************************

| /   slide up
| \   slide down
| h   hammer-on
| p   pull-off
| ~   vibrato
| +   harmonic
| x   Mute note
| b   Bend
| pb  Pre-bend
| br  Bend release
| pbr Pre-bend release
| brb Bend release bend

************************************
Добавлено: 21.11.2015
Другие материалы по этой песне:
  • Аккорды и текст

Страница создана 21.11.2015
http://primanota.ru/jazz-standard/all-of-me-chords.htm
Привет, Гость.
Предлагаем пройти революционный курс по гитаре.
Подарок от PrimaNota.Ru, забирай!