PrimaNota.ru - самый крупный в мире бесплатный архив песенных текстов, аккордов, табулатур и нот


Jazz Butcher Conspiracy - Drink - аккорды и текст, таба, видео

Регистрация Запомнить меня
Войти через:  Facebook Google Twitter Vk Yandex Mail.ru

Jazz Butcher Conspiracy - Drink - аккорды и текст, таба, видео

Печатать
Просмотров: 112
Уроки эстрадного вокала в Санкт-Петербурге
Drink
Jazz Butcher Conspiracy




Drink

written by Max Eider

as performed by Jazz Butcher on Bloody Nonsense


transcribed by Andy Holaday


Arrangement notes: the song is laid out in sequence.  There are tabs for the
opening guitar solo, and for the trombone solo in the middle.  The rest of
the tune is easy chords chord for which maps may be found immediately
after a fret number indicate that the note is sustained for the indicated
duration.  There is also the occasional staccato (.) and accent () marking.

=========================================================================

Chord maps:

e---0---7----2------2-----3---4----4----4----5---4---
B---0---9----2------2-----3---4----4----4----5---6----
G---1---9----2------2-----4---5----5----4----4---6----
D---2---9----2------4-----5---6----4----4----5---6----
A---2---7----4------2-----5---6----6----6----7---4-----
E---0---7----2------2-----3---4----4----4----5---4-------
    E  E  F#m7 B(add 9) G   G#  G#7  G#m7  A7  C#

=========================================================================

Intro solo:

swing

  1 + 2 + 3 + 4 +   1 + 2 + 3 + 4 +   1 + 2 + 3 + 4 +   1 + 2 + 3 + 4 +
|-0---------------|-----3h42  420-|-----0-2-0-------|-----1/2-543-232-|
|-0-4-------------|---4-------------|---2  2---2-|---3-------------|
|-1---6-5-4-----3-|/5  5-----|-2  2---|-03-----3--------|
|-2---------6 --|-----------------|-----------------|-----------------|
|-2---------------|-----------------|-----------------|-----------------|
|-0---------------|-----------------|-----------------|-----------------|



  1 + 2 + 3 + 4 +   1 + 2 + 3 + 4 +   1 + 2 + 3 + 4 +   1 + 2 + 3 + 4 +
|-3h4 |-4-4---4---432| 2  2 2-----|-2-2---2  4/|
|----3  5--5--|-4-4---4---432| 2  2-2-----|-2-2---2  4/|
|-------3/4-----4-|-4-4---4---432| 2  2-2-----|-2-2---2  4/|
|-------------6---|-6-6---6---432| 2  2-2-----|-4-4---4  4/|
|-----------------|-4-4---4---654| 4  4-4-----|-2-2---2  6/|
|-----0 |-4-4---4---432| 2  2 2-2-2  2-2---2  4/|
                    . .   .                           . .



  1 + 2 + 3 + 4 +   1 + 2 + 3 + 4 +   1 + 2 + 3 + 4 +
|-5-5-5-32-2-2---|-2-4-2-4-2-------|-4 2 |
|-5-5-5-32-2-2---|-2  2-----|-4 |
|-5-5-5-32-2-2---|-2 |-2 |
|-5-5-5-32-2-2---|-4 |-4 |
|-7-7-7-54-4-4---|-2 |-2 |
|-5-5-5-32-2-2---|-2 |-2 |


E                    G    G#                G#7
  I'm ..

              A7                       C7
It ..

E                            G G#       G#7
I have ..

  A7                               C7
I ..

           E                         G  G#      G#7
I ..

A7            A7 C7
  Falling ..

   E           C#         G#m7  Gm7
It ..

F#m7             B(add 9)
Falling ..

F#m7             B(add 9)                       (pause)
                 Just one ..

(faster)
E           G#7
My oh ..

     A7                       C7
It's ..

E           G#7
My oh ..

      A7                               C7
If it ...

   E                 G#7
My my .....

  A7                          C7
I never ...

  E                                C#       G#m7  Gm7
Believe ..

F#m7            B(add 9)                       F#m7
Going ..--

           B(add 9)            (pause)
They ...

F#m7                          Am7
Don't ..,

       E                      C#   G#m7
It's a ...

Gm7 F#m7                    B(add 9)         E G#/A E A#/B
Oh yeah, ...


Trombone solo:

  1 + 2 + 3 + 4 +   1 + 2 + 3 + 4 +   1 + 2 + 3 + 4 +   1 + 2 + 3 + 4 +
|-----------------|-----------------|-----------------|-----------------|
|-----------------|-----------------|-------5-7h8p757|-----------7b8b7-|
|-----------------|-----5---6-5-----|----6------------|-----------------|
|-------6---------|-------------6-6-|-7---------------|-----------------|
|---5-----7-7-----|-----------------|-----------------|-----------------|
|-----------------|-----------------|-----------------|-----------------|
 E                G#7               A7                C7


  1 + 2 + 3 + 4 +   1 + 2 + 3 + 4 +   1 + 2 + 3 + 4 +   1 + 2 + 3 + 4 +
|-----------------|-----------------|-----------------|-----------------|
|-----------------|-----------------|-----------------|-----------------|
|-8---------------|-----------------|-----------------|-----------------|
|---9---9~~~ ---9-|-10 6--6~~~~~~~~ |-----7 bbbbbbbbbbb-8------------8-|
|-----------------|-----------------|-----------------|-----------------|
|-----------------|-----------------|-----------------|-----------------|
 E                G#7               A7   slow bend up  C7



  1 + 2 + 3 + 4 +   1 + 2 + 3 + 4 +   1 + 2 + 3 + 4 +   1 + 2 + 3 + 4 +
|-----------------|-----------------|-----------------|-----------------|
|-----------------|-----------------|-----------------|-----------------|
|---9-------------|----8-6--4/5-----|-----------------|-----8-9---9h10p9|
|-9---9-6---6-----|-------------6-7-|-6b7b6-----------|-----------------|
|---------7---7-7-|----------------7|-----7-7---------|-----------------|
|-----------------|-----------------|-----------------|-----------------|
 E                G#7               A7                C7


  1 + 2 + 3 + 4 +   1 + 2 + 3 + 4 +   1 + 2 + 3 + 4 +   1 + 2 + 3 + 4 +
|-----------------|-----------------|-----------------|-----------------|
|-----------------|-----------------|-----------------|-----------------|
|-----------------|-----------------|-----11 bbbbbbbbbb 12---1112119---|
|-9-------------9-|-10-6-6--6 -|-----------------|---------------11|
|-----------------|-----------------|-----------------|-----------------|
|-----------------|-----------------|-----------------|-----------------|
 E                G#7               A7   slow bend up  C7    Well....


  1 +
|----
|----
|----
|-9-
|----
|----
 E


My .--
It's ...
My oh ...--
If it ..

My ..
I ...

Believe ..
Falling ..art.
Just ..

Don't ...,
It's a ...
Oh ..--
Hope I ..) --
I hope ...
Mmmmm Mmmmm.

====================
Andy (holadays2@msn.com)


Добавлено: 07.12.2013
Другие материалы по этой песне:
  • Аккорды и текст

Страница создана 02.04.2012
http://primanota.ru/jazz-butcher-conspiracy/drink-chords.htm
Привет, Гость.
Предлагаем пройти революционный курс по гитаре.
Подарок от PrimaNota.Ru, забирай!