PrimaNota.ru - самый крупный в мире бесплатный архив песенных текстов, аккордов, табулатур и нот


Jayesslee - Blank Space - таба, видео

Регистрация Запомнить меня
Войти через:  Facebook Google Twitter Vk Yandex Mail.ru

Jayesslee - Blank Space - таба, видео

Печатать
Просмотров: 127
Уроки эстрадного вокала в Санкт-Петербурге
Tabbed by: Francis
Tuning: Standard

This may not be the exact way that she plays it but it sounds the same.

Capo at the 1st fret

intro

|------------2------------------------------
|--------3----------------------------------
|------2------------------------------------
|---0------0--------------------------------   x5
|-------------------------------------------
|-------------------------------------------


verse 1

|------------2------------2-------------2-------|---------0------------0-----------0-|
|--------3------------3-------------3-----------|------3----------3------------3-----|
|------2-----------2-------------2--------------|----2----------2-----------2--------|
|---0------0----0--------0-----0-------0--------|------------------------------------| 
|-----------------------------------------------|--2-----2----2-----2-----2-------2--|
|-----------------------------------------------|------------------------------------|

|----------0-------------0---------0-----------0-|--------------0----------0-----------x-|
|------3------------3-----------3----------3-----|---------3-----------3--------2------x-|
|----2------------2-----------2---------2--------|------2------------2----------2------x-|
|------------------------------------------------|----2-------2----2-----2------2------x-|
|------------------------------------------------|-------------------------------------x-|
|--3-----3------3-----3-----3--------3-------3---|-------------------------------------x|

verse 2

|------------2------------2-------------2-------|---------0------------0-----------0-|
|--------3------------3-------------3-----------|------3----------3------------3-----|
|------2-----------2-------------2--------------|----2----------2-----------2--------|
|---0------0----0--------0-----0-------0--------|------------------------------------| 
|-----------------------------------------------|--2-----2----2-----2-----2-------2--|
|-----------------------------------------------|------------------------------------|

|----------0-------------0---------0-----------0-|--------------0----------0-----------x-|
|------3------------3-----------3----------3-----|---------3-----------3--------2------x-|
|----2------------2-----------2---------2--------|------2------------2----------2------x-|
|------------------------------------------------|----2-------2----2-----2------2------x-|
|------------------------------------------------|-------------------------------------x-|
|--3-----3------3-----3-----3--------3-------3---|-------------------------------------x|


chorus

|--------x---x---------x-----x------x----x------x-----|------x---x-----x-----x------x---x-------x----x----|
|------3-x-3-x--3---3--x--3--x----3-x--3-x-3--3-x--3--|------x---x-----x-----x------x---x-------x----x----|
|------2-x-2-x--2---2--x--2--x----2-x--2-x-2--2-x--2--|----0-x-0-x---0-x--0--x----0-x-0-x-----0-x-0--x----|
|---0----x-0-x----0----x--0--x------x----x------x-----|----2-x-2-x---2-x--2--x----0-x-0-x-----0-x-0--x----|
|--------x---x---------x-----x--2---x--2-x--2---x--2--|------x---x-----x-----x------x---x-------x----x----|
|--------x---x---------x-----x------x----x------x-----|---0--x---x-0---x-----x--3---x---x---3---x----x----|


verse 3

|--------x---x---------x-----x------x----x------x-----|------x---x-----x-----x------x---x-------x----x----|
|------3-x-3-x--3---3--x--3--x----3-x--3-x-3--3-x--3--|------x---x-----x-----x------x---x-------x----x----|
|------2-x-2-x--2---2--x--2--x----2-x--2-x-2--2-x--2--|----0-x-0-x---0-x--0--x----0-x-0-x-----0-x-0--x----|
|---0----x-0-x----0----x--0--x------x----x------x-----|----2-x-2-x---2-x--2--x----0-x-0-x-----0-x-0--x----|
|--------x---x---------x-----x--2---x--2-x--2---x--2--|------x---x-----x-----x------x---x-------x----x----|
|--------x---x---------x-----x------x----x------x-----|---0--x---x-0---x-----x--3---x---x---3---x----x----|

chorus

Strum this chords..

|---2---3----3----3------|
|---3---3----3----3------|
|---2---2----------------|
|------------2-----------|
|-------2----2-----------|
|-----------------3------|

refrain

(palm mute)

|---2---3----3----3------|
|---3---3----3----3------|
|---2---2----------------|
|------------2-----------|
|-------2----2-----------|
|-----------------3------|

chorus

Strum this chords..

|---2---3----3----3------|
|---3---3----3----3------|
|---2---2----------------|
|------------2-----------|
|-------2----2-----------|
|-----------------3------|

END

Добавлено: 09.12.2015
Другие материалы по этой песне:
  • Аккорды и текст

Страница создана 09.12.2015
http://primanota.ru/jayesslee/blank-space-chords.htm
Привет, Гость.
Предлагаем пройти революционный курс по гитаре.
Подарок от PrimaNota.Ru, забирай!