PrimaNota.ru - самый крупный в мире бесплатный архив песенных текстов, аккордов, табулатур и нот


Jaya The Cat - Shit Jobs For Rock - текст песни, таба, видео

Регистрация Запомнить меня
Войти через:  Facebook Google Twitter Vk Yandex Mail.ru

Jaya The Cat - Shit Jobs For Rock - текст песни, таба, видео

Печатать
Просмотров: 144
Song: Shit Jobs For Rock
Artist: Jaya The Cat

Guitar 1
                                                                        PM PM  
     E   E  E  E  H           E   E  E  E  H           E   E  E  E  Q    E  E   
E||------------------------|------------------------|--------------------------|
B||------------------------|------------------------|--------------------------|
G||------------------------|------------------------|--------------------------|
D||---------------3--------|---------------3--------|---------------3----------|
A||--5s--3--------3--------|--5s--3--------3--------|--5s--3--------3----3--3--|
E||--3---1--------1--------|--3---1--------1--------|--3---1--------1----1--1--|


  PM                                                                    
  Q    Q    H           E   E  E  E  H           E   E  E  E  H         
---------------------|------------------------|------------------------|
---------------------|------------------------|------------------------|
---------------------|------------------------|------------------------|
-------5----3--------|---------------3--------|---------------3--------|
--3----5----3--------|--5s--3--------3--------|--5s--3--------3--------|
--1----3----1--------|--3---1--------1--------|--3---1--------1--------|


                    PM PM    PM                           PM PM      PM PM  
  E   E  E  E  Q    E  E     Q    Q    H           E   E  E  E  Q    E  E   
--------------------------|---------------------|--------------------------|
--------------------------|---------------------|--------------------------|
--------------------------|---------------------|--------------------------|
---------------3----------|-------5----3--------|---------------3----------|
--5s--3--------3----3--3--|--3----5----3--------|--5s--3--3--3--3----3--3--|
--3---1--------1----1--1--|--1----3----1--------|--3---1--1--1--1----1--1--|


         PM PM      PM PM           PM PM      PM PM    PM PM           PM PM  
  E   E  E  E  Q    E  E     E   E  E  E  Q    E  E     E  E  Q    Q    E  E   
--------------------------|--------------------------|------------------------|
--------------------------|--------------------------|------------------------|
--------------------------|--------------------------|------------------------|
---------------3----------|---------------3----------|--------5----3----------|
--5s--3--3--3--3----3--3--|--5s--3--3--3--3----3--3--|--3--3--5----3----3--3--|
--3---1--1--1--1----1--1--|--3---1--1--1--1----1--1--|--1--1--3----1----1--1--|


         PM PM      PM PM           PM PM      PM PM  
  E   E  E  E  Q    E  E     E   E  E  E  Q    E  E   
--------------------------|--------------------------|
--------------------------|--------------------------|
--------------------------|--------------------------|
---------------3----------|---------------3----------|
--5s--3--3--3--3----3--3--|--5s--3--3--3--3----3--3--|
--3---1--1--1--1----1--1--|--3---1--1--1--1----1--1--|


         PM PM      PM PM    PM PM           PM PM  
  E   E  E  E  Q    E  E     E  E  Q    Q    E  E   
--------------------------|------------------------|
--------------------------|------------------------|
--------------------------|------------------------|
---------------3----------|--------5----3----------|
--5s--3--3--3--3----3--3--|--3--3--5----3----3--3--|
--3---1--1--1--1----1--1--|--1--1--3----1----1--1--|


  use a cleaner sound and wah-wah effect                                
  H                                      H           H        H         
--------------------------------------------------|--------------------|
-----------------------------------------1--------|-----------1--------|
-----------------------------------------2--------|-----------2--------|
-----------------------------------------3--------|-----------3--------|
--------------------------------------------------|--------------------|
--------------------------------------------------|--------------------|


  H        H           H        H           H        H         
--------------------|--------------------|--------------------|
-----------1--------|-----------1--------|-----------1--------|
-----------2--------|-----------2--------|-----------2--------|
-----------3--------|-----------3--------|-----------3--------|
--------------------|--------------------|--------------------|
--------------------|--------------------|--------------------|


  H        H           H        H           H        H         
--------------------|--------------------|--------------------|
-----------1--------|-----------1--------|-----------1--------|
-----------2--------|-----------2--------|-----------2--------|
-----------3--------|-----------3--------|-----------3--------|
--------------------|--------------------|--------------------|
--------------------|--------------------|--------------------|


  H        H           H        H           H        H         
--------------------|--------------------|--------------------|
-----------1--------|-----------1--------|-----------1--------|
-----------2--------|-----------2--------|-----------2--------|
-----------3--------|-----------3--------|-----------3--------|
--------------------|--------------------|--------------------|
--------------------|--------------------|--------------------|


  H        H           H        H           H        H         
--------------------|--------------------|--------------------|
-----------1--------|-----------1--------|--------------------|
-----------2--------|-----------2--------|-----------5--------|
-----------3--------|-----------3--------|-----------7--------|
--------------------|--------------------|-----------8--------|
--------------------|--------------------|--------------------|


  H        H           H        H           E  E  E  E  E  E  E  E   
--------------------|--------------------|--------------------------|
--------------------|--------------------|--x--x--7--x--x--x--7--x--|
-----------5--------|-----------5--------|--x--x--7--x--x--x--7--x--|
-----------7--------|-----------7--------|--x--x--7--x--x--x--7--x--|
-----------8--------|-----------8--------|--x--x--5--x--x--x--5--x--|
--------------------|--------------------|--------------------------|


  E  E   E  E  E  E   E  E     E  E  E  E  E  E  E  E   
----------------------------|--------------------------|
--x--x---x--x--x--x---x--x--|--x--x--7--x--x--x--7--x--|
--x--x--12--x--x--x--12--x--|--x--x--7--x--x--x--7--x--|
--x--x--12--x--x--x--12--x--|--x--x--7--x--x--x--7--x--|
--x--x--10--x--x--x--10--x--|--x--x--5--x--x--x--5--x--|
----------------------------|--------------------------|


  E  E  E  E  E  E  E  E     E  E  E  E  E  E  E  E   
--------------------------|--------------------------|
--------------------------|--x--x--7--x--x--x--7--x--|
--x--x--4--x--x--x--4--x--|--x--x--7--x--x--x--7--x--|
--x--x--5--x--x--x--5--x--|--x--x--7--x--x--x--7--x--|
--x--x--5--x--x--x--5--x--|--x--x--5--x--x--x--5--x--|
--x--x--3--x--x--x--3--x--|--------------------------|


  E  E   E  E  E  E   E  E     E  E  E  E  E  E  E  E   
----------------------------|--------------------------|
--x--x---x--x--x--x---x--x--|--x--x--7--x--x--x--7--x--|
--x--x--12--x--x--x--12--x--|--x--x--7--x--x--x--7--x--|
--x--x--12--x--x--x--12--x--|--x--x--7--x--x--x--7--x--|
--x--x--10--x--x--x--10--x--|--x--x--5--x--x--x--5--x--|
----------------------------|--------------------------|


  E  E  E  E  E  E  E  E     E  E  E  E  E  E  E  E   
--------------------------|--------------------------|
--------------------------|--x--x--7--x--x--x--7--x--|
--x--x--4--x--x--x--4--x--|--x--x--7--x--x--x--7--x--|
--x--x--5--x--x--x--5--x--|--x--x--7--x--x--x--7--x--|
--x--x--5--x--x--x--5--x--|--x--x--5--x--x--x--5--x--|
--x--x--3--x--x--x--3--x--|--------------------------|


  E  E   E  E  E  E   E  E     E  E  E  E  E  E  E  E   
----------------------------|--------------------------|
--x--x---x--x--x--x---x--x--|--x--x--7--x--x--x--7--x--|
--x--x--12--x--x--x--12--x--|--x--x--7--x--x--x--7--x--|
--x--x--12--x--x--x--12--x--|--x--x--7--x--x--x--7--x--|
--x--x--10--x--x--x--10--x--|--x--x--5--x--x--x--5--x--|
----------------------------|--------------------------|


  E  E  E  E  E  E  E  E     E  E  E  E  E  E  E  E   
--------------------------|--------------------------|
--------------------------|--x--x--7--x--x--x--7--x--|
--x--x--4--x--x--x--4--x--|--x--x--7--x--x--x--7--x--|
--x--x--5--x--x--x--5--x--|--x--x--7--x--x--x--7--x--|
--x--x--5--x--x--x--5--x--|--x--x--5--x--x--x--5--x--|
--x--x--3--x--x--x--3--x--|--------------------------|


  E  E   E  E  E  E   E  E     E  E  E  E  E  E  E  E   
----------------------------|--------------------------|
--x--x---x--x--x--x---x--x--|--x--x--7--x--x--x--7--x--|
--x--x--12--x--x--x--12--x--|--x--x--7--x--x--x--7--x--|
--x--x--12--x--x--x--12--x--|--x--x--7--x--x--x--7--x--|
--x--x--10--x--x--x--10--x--|--x--x--5--x--x--x--5--x--|
----------------------------|--------------------------|


  E  E  E  E  E  E  E  E     E   E  E  E  H           E   E  E  E  H         
--------------------------|------------------------|------------------------|
--------------------------|------------------------|------------------------|
--x--x--4--x--x--x--4--x--|------------------------|------------------------|
--x--x--5--x--x--x--5--x--|---------------3--------|---------------3--------|
--x--x--5--x--x--x--5--x--|--5s--3--------3--------|--5s--3--------3--------|
--x--x--3--x--x--x--3--x--|--3---1--------1--------|--3---1--------1--------|


                    PM PM    PM                           PM PM      PM PM  
  E   E  E  E  Q    E  E     Q    Q    H           E   E  E  E  Q    E  E   
--------------------------|---------------------|--------------------------|
--------------------------|---------------------|--------------------------|
--------------------------|---------------------|--------------------------|
---------------3----------|-------5----3--------|---------------3----------|
--5s--3--------3----3--3--|--3----5----3--------|--5s--3--3--3--3----3--3--|
--3---1--------1----1--1--|--1----3----1--------|--3---1--1--1--1----1--1--|


         PM PM      PM PM           PM PM      PM PM    PM PM           PM PM  
  E   E  E  E  Q    E  E     E   E  E  E  Q    E  E     E  E  Q    Q    E  E   
--------------------------|--------------------------|------------------------|
--------------------------|--------------------------|------------------------|
--------------------------|--------------------------|------------------------|
---------------3----------|---------------3----------|--------5----3----------|
--5s--3--3--3--3----3--3--|--5s--3--3--3--3----3--3--|--3--3--5----3----3--3--|
--3---1--1--1--1----1--1--|--3---1--1--1--1----1--1--|--1--1--3----1----1--1--|


  use wah-wah effect                                                     
  H                  H           H        H           H        H         
------------------------------|--------------------|--------------------|
---------------------1--------|-----------1--------|-----------1--------|
---------------------2--------|-----------2--------|-----------2--------|
---------------------3--------|-----------3--------|-----------3--------|
------------------------------|--------------------|--------------------|
------------------------------|--------------------|--------------------|


  H        H           H        H           H        H         
--------------------|--------------------|--------------------|
-----------1--------|-----------1--------|-----------1--------|
-----------2--------|-----------2--------|-----------2--------|
-----------3--------|-----------3--------|-----------3--------|
--------------------|--------------------|--------------------|
--------------------|--------------------|--------------------|


  H        H           H        H           H        H         
--------------------|--------------------|--------------------|
-----------1--------|-----------1--------|-----------1--------|
-----------2--------|-----------2--------|-----------2--------|
-----------3--------|-----------3--------|-----------3--------|
--------------------|--------------------|--------------------|
--------------------|--------------------|--------------------|


  H        H           H        H           H        H         
--------------------|--------------------|--------------------|
-----------1--------|-----------1--------|-----------1--------|
-----------2--------|-----------2--------|-----------2--------|
-----------3--------|-----------3--------|-----------3--------|
--------------------|--------------------|--------------------|
--------------------|--------------------|--------------------|


  H        H           H        H           H        H         
--------------------|--------------------|--------------------|
-----------1--------|--------------------|--------------------|
-----------2--------|-----------5--------|-----------5--------|
-----------3--------|-----------7--------|-----------7--------|
--------------------|-----------8--------|-----------8--------|
--------------------|--------------------|--------------------|


  H        H           E  E  E  E  E  E  E  E     E  E   E  E  E  E   E  E   
--------------------|--------------------------|----------------------------|
--------------------|--x--x--7--x--x--x--7--x--|--x--x---x--x--x--x---x--x--|
-----------5--------|--x--x--7--x--x--x--7--x--|--x--x--12--x--x--x--12--x--|
-----------7--------|--x--x--7--x--x--x--7--x--|--x--x--12--x--x--x--12--x--|
-----------8--------|--x--x--5--x--x--x--5--x--|--x--x--10--x--x--x--10--x--|
--------------------|--------------------------|----------------------------|


  E  E  E  E  E  E  E  E     E  E  E  E  E  E  E  E   
--------------------------|--------------------------|
--x--x--7--x--x--x--7--x--|--------------------------|
--x--x--7--x--x--x--7--x--|--x--x--4--x--x--x--4--x--|
--x--x--7--x--x--x--7--x--|--x--x--5--x--x--x--5--x--|
--x--x--5--x--x--x--5--x--|--x--x--5--x--x--x--5--x--|
--------------------------|--x--x--3--x--x--x--3--x--|


  E  E  E  E  E  E  E  E     E  E   E  E  E  E   E  E   
--------------------------|----------------------------|
--x--x--7--x--x--x--7--x--|--x--x---x--x--x--x---x--x--|
--x--x--7--x--x--x--7--x--|--x--x--12--x--x--x--12--x--|
--x--x--7--x--x--x--7--x--|--x--x--12--x--x--x--12--x--|
--x--x--5--x--x--x--5--x--|--x--x--10--x--x--x--10--x--|
--------------------------|----------------------------|


  E  E  E  E  E  E  E  E     E  E  E  E  E  E  E  E   
--------------------------|--------------------------|
--x--x--7--x--x--x--7--x--|--------------------------|
--x--x--7--x--x--x--7--x--|--x--x--4--x--x--x--4--x--|
--x--x--7--x--x--x--7--x--|--x--x--5--x--x--x--5--x--|
--x--x--5--x--x--x--5--x--|--x--x--5--x--x--x--5--x--|
--------------------------|--x--x--3--x--x--x--3--x--|


  E  E  E  E  E  E  E  E     E  E   E  E  E  E   E  E   
--------------------------|----------------------------|
--x--x--7--x--x--x--7--x--|--x--x---x--x--x--x---x--x--|
--x--x--7--x--x--x--7--x--|--x--x--12--x--x--x--12--x--|
--x--x--7--x--x--x--7--x--|--x--x--12--x--x--x--12--x--|
--x--x--5--x--x--x--5--x--|--x--x--10--x--x--x--10--x--|
--------------------------|----------------------------|


  E  E  E  E  E  E  E  E     E  E  E  E  E  E  E  E   
--------------------------|--------------------------|
--x--x--7--x--x--x--7--x--|--------------------------|
--x--x--7--x--x--x--7--x--|--x--x--4--x--x--x--4--x--|
--x--x--7--x--x--x--7--x--|--x--x--5--x--x--x--5--x--|
--x--x--5--x--x--x--5--x--|--x--x--5--x--x--x--5--x--|
--------------------------|--x--x--3--x--x--x--3--x--|


  E  E  E  E  E  E  E  E     E  E   E  E  E  E   E  E     E  E  H.            
--------------------------|----------------------------|---------------------|
--x--x--7--x--x--x--7--x--|--x--x---x--x--x--x---x--x--|--7------------------|
--x--x--7--x--x--x--7--x--|--x--x--12--x--x--x--12--x--|--7------------------|
--x--x--7--x--x--x--7--x--|--x--x--12--x--x--x--12--x--|--7------------------|
--x--x--5--x--x--x--5--x--|--x--x--10--x--x--x--10--x--|--5------------------|
--------------------------|----------------------------|---------------------|


  W                   E   E  E  E  H           E   E  E  E  H         
-------------------|------------------------|------------------------|
-------------------|------------------------|------------------------|
-------------------|------------------------|------------------------|
-------------------|---------------3--------|---------------3--------|
-------------------|--5s--3--------3--------|--5s--3--------3--------|
-------------------|--3---1--------1--------|--3---1--------1--------|


                    PM PM    PM                           PM PM      PM PM  
  E   E  E  E  Q    E  E     Q    Q    H           E   E  E  E  Q    E  E   
--------------------------|---------------------|--------------------------|
--------------------------|---------------------|--------------------------|
--------------------------|---------------------|--------------------------|
---------------3----------|-------5----3--------|---------------3----------|
--5s--3--------3----3--3--|--3----5----3--------|--5s--3--3--3--3----3--3--|
--3---1--------1----1--1--|--1----3----1--------|--3---1--1--1--1----1--1--|


         PM PM      PM PM           PM PM      PM PM    PM PM                 
  E   E  E  E  Q    E  E     E   E  E  E  Q    E  E     E  E  Q    H          
--------------------------|--------------------------|----------------------||
--------------------------|--------------------------|----------------------||
--------------------------|--------------------------|----------------------||
---------------3----------|---------------3----------|--------5----3--------||
--5s--3--3--3--3----3--3--|--5s--3--3--3--3----3--3--|--3--3--5----3--------||
--3---1--1--1--1----1--1--|--3---1--1--1--1----1--1--|--1--1--3----1--------||

Guitar 2

                                                                         PM PM  
     E   E  E  E  H           E   E  E  E  H           E   E  E  E  Q    E  E   
E||------------------------|------------------------|--------------------------|
B||------------------------|------------------------|--------------------------|
G||------------------------|------------------------|--------------------------|
D||---------------3--------|---------------3--------|---------------3----------|
A||--5s--3--------3--------|--5s--3--------3--------|--5s--3--------3----3--3--|
E||--3---1--------1--------|--3---1--------1--------|--3---1--------1----1--1--|


  PM                                                                    
  Q    Q    H           E   E  E  E  H           E   E  E  E  H         
---------------------|------------------------|------------------------|
---------------------|------------------------|------------------------|
---------------------|------------------------|------------------------|
-------5----3--------|---------------3--------|---------------3--------|
--3----5----3--------|--5s--3--------3--------|--5s--3--------3--------|
--1----3----1--------|--3---1--------1--------|--3---1--------1--------|


                    PM PM    PM                           PM PM      PM PM  
  E   E  E  E  Q    E  E     Q    Q    H           E   E  E  E  Q    E  E   
--------------------------|---------------------|--------------------------|
--------------------------|---------------------|--------------------------|
--------------------------|---------------------|--------------------------|
---------------3----------|-------5----3--------|---------------3----------|
--5s--3--------3----3--3--|--3----5----3--------|--5s--3--3--3--3----3--3--|
--3---1--------1----1--1--|--1----3----1--------|--3---1--1--1--1----1--1--|


         PM PM      PM PM           PM PM      PM PM    PM PM           PM PM  
  E   E  E  E  Q    E  E     E   E  E  E  Q    E  E     E  E  Q    Q    E  E   
--------------------------|--------------------------|------------------------|
--------------------------|--------------------------|------------------------|
--------------------------|--------------------------|------------------------|
---------------3----------|---------------3----------|--------5----3----------|
--5s--3--3--3--3----3--3--|--5s--3--3--3--3----3--3--|--3--3--5----3----3--3--|
--3---1--1--1--1----1--1--|--3---1--1--1--1----1--1--|--1--1--3----1----1--1--|


         PM PM      PM PM           PM PM      PM PM  
  E   E  E  E  Q    E  E     E   E  E  E  Q    E  E   
--------------------------|--------------------------|
--------------------------|--------------------------|
--------------------------|--------------------------|
---------------3----------|---------------3----------|
--5s--3--3--3--3----3--3--|--5s--3--3--3--3----3--3--|
--3---1--1--1--1----1--1--|--3---1--1--1--1----1--1--|


         PM PM      PM PM    PM PM           PM PM    PM PM PM PM PM PM PM PM  
  E   E  E  E  Q    E  E     E  E  Q    Q    E  E     E  E  E  E  E  E  E  E   
--------------------------|------------------------|--------------------------|
--------------------------|------------------------|--------------------------|
--------------------------|------------------------|--------------------------|
---------------3----------|--------5----3----------|--------------------------|
--5s--3--3--3--3----3--3--|--3--3--5----3----3--3--|--3--3--3--3--3--3--3--3--|
--3---1--1--1--1----1--1--|--1--1--3----1----1--1--|--1--1--1--1--1--1--1--1--|


  PM PM PM PM PM PM PM PM    PM PM PM PM PM PM PM PM  
  E  E  E  E  E  E  E  E     E  E  E  E  E  E  E  E   
--------------------------|--------------------------|
--------------------------|--------------------------|
--------------------------|--------------------------|
--------------------------|--------------------------|
--3--3--3--3--3--3--3--3--|--3--3--3--3--3--3--3--3--|
--1--1--1--1--1--1--1--1--|--1--1--1--1--1--1--1--1--|


  PM PM PM PM PM PM PM PM    PM PM PM PM PM PM PM PM  
  E  E  E  E  E  E  E  E     E  E  E  E  E  E  E  E   
--------------------------|--------------------------|
--------------------------|--------------------------|
--------------------------|--------------------------|
--------------------------|--------------------------|
--3--3--5--5--3--3--3--3--|--3--3--3--3--3--3--3--3--|
--1--1--3--3--1--1--1--1--|--1--1--1--1--1--1--1--1--|


  PM PM PM PM PM PM PM PM    PM PM PM PM PM PM PM PM  
  E  E  E  E  E  E  E  E     E  E  E  E  E  E  E  E   
--------------------------|--------------------------|
--------------------------|--------------------------|
--------------------------|--------------------------|
--------------------------|--------------------------|
--3--3--3--3--3--3--3--3--|--3--3--3--3--3--3--3--3--|
--1--1--1--1--1--1--1--1--|--1--1--1--1--1--1--1--1--|


  PM PM PM PM PM PM PM PM    PM PM PM PM PM PM PM PM  
  E  E  E  E  E  E  E  E     E  E  E  E  E  E  E  E   
--------------------------|--------------------------|
--------------------------|--------------------------|
--------------------------|--------------------------|
--------------------------|--------------------------|
--3--3--5--5--3--3--3--3--|--3--3--3--3--3--3--3--3--|
--1--1--3--3--1--1--1--1--|--1--1--1--1--1--1--1--1--|


  PM PM PM PM PM PM PM PM    PM PM PM PM PM PM PM PM  
  E  E  E  E  E  E  E  E     E  E  E  E  E  E  E  E   
--------------------------|--------------------------|
--------------------------|--------------------------|
--------------------------|--------------------------|
--------------------------|--------------------------|
--3--3--3--3--3--3--3--3--|--3--3--3--3--3--3--3--3--|
--1--1--1--1--1--1--1--1--|--1--1--1--1--1--1--1--1--|


  PM PM PM PM PM PM PM PM    PM PM PM PM PM PM PM PM  
  E  E  E  E  E  E  E  E     E  E  E  E  E  E  E  E   
--------------------------|--------------------------|
--------------------------|--------------------------|
--------------------------|--------------------------|
--------------------------|--------------------------|
--3--3--5--5--3--3--3--3--|--3--3--3--3--3--3--3--3--|
--1--1--3--3--1--1--1--1--|--1--1--1--1--1--1--1--1--|


  PM PM PM PM PM PM PM PM    PM PM PM PM PM PM PM PM  
  E  E  E  E  E  E  E  E     E  E  E  E  E  E  E  E   
--------------------------|--------------------------|
--------------------------|--------------------------|
--------------------------|--------------------------|
--------------------------|--------------------------|
--3--3--3--3--3--3--3--3--|--3--3--3--3--3--3--3--3--|
--1--1--1--1--1--1--1--1--|--1--1--1--1--1--1--1--1--|


  PM PM PM PM PM PM PM PM    PM PM PM PM PM PM PM PM  
  E  E  E  E  E  E  E  E     E  E  E  E  E  E  E  E   
--------------------------|--------------------------|
--------------------------|--------------------------|
--------------------------|--------------------------|
--------------------------|--7--7--7--7--7--7--7--7--|
--3--3--5--5--3--3--3--3--|--5--5--5--5--5--5--5--5--|
--1--1--3--3--1--1--1--1--|--------------------------|


  PM PM PM PM PM PM PM PM    PM PM PM PM PM PM PM PM  
  E  E  E  E  E  E  E  E     E  E  E  E  E  E  E  E   
--------------------------|--------------------------|
--------------------------|--------------------------|
--------------------------|--------------------------|
--------------------------|--7--7--7--7--7--7--7--7--|
--5--5--5--5--5--5--5--5--|--5--5--5--5--5--5--5--5--|
--3--3--3--3--3--3--3--3--|--------------------------|


  PM PM PM PM PM PM PM PM    PM PM PM PM PM PM PM PM  
  E  E  E  E  E  E  E  E     E  E  E  E  E  E  E  E   
--------------------------|--------------------------|
--------------------------|--------------------------|
--------------------------|--------------------------|
--------------------------|--7--7--7--7--7--7--7--7--|
--5--5--5--5--5--5--5--5--|--5--5--5--5--5--5--5--5--|
--3--3--3--3--3--3--3--3--|--------------------------|


  PM PM PM PM PM PM PM PM    PM PM PM PM PM PM PM PM  
  E  E  E  E  E  E  E  E     E  E  E  E  E  E  E  E   
--------------------------|--------------------------|
--------------------------|--------------------------|
--------------------------|--------------------------|
--------------------------|--7--7--7--7--7--7--7--7--|
--5--5--5--5--5--5--5--5--|--5--5--5--5--5--5--5--5--|
--3--3--3--3--3--3--3--3--|--------------------------|


  PM PM PM PM PM PM PM PM    PM PM PM PM PM PM PM PM  
  E  E  E  E  E  E  E  E     E  E  E  E  E  E  E  E   
--------------------------|--------------------------|
--------------------------|--------------------------|
--------------------------|--------------------------|
--------------------------|--7--7--7--7--7--7--7--7--|
--5--5--5--5--5--5--5--5--|--5--5--5--5--5--5--5--5--|
--3--3--3--3--3--3--3--3--|--------------------------|


  PM PM PM PM PM PM PM PM    PM PM PM PM PM PM PM PM  
  E  E  E  E  E  E  E  E     E  E  E  E  E  E  E  E   
--------------------------|--------------------------|
--------------------------|--------------------------|
--------------------------|--------------------------|
--------------------------|--7--7--7--7--7--7--7--7--|
--5--5--5--5--5--5--5--5--|--5--5--5--5--5--5--5--5--|
--3--3--3--3--3--3--3--3--|--------------------------|


  PM PM PM PM PM PM PM PM    PM PM PM PM PM PM PM PM  
  E  E  E  E  E  E  E  E     E  E  E  E  E  E  E  E   
--------------------------|--------------------------|
--------------------------|--------------------------|
--------------------------|--------------------------|
--------------------------|--7--7--7--7--7--7--7--7--|
--5--5--5--5--5--5--5--5--|--5--5--5--5--5--5--5--5--|
--3--3--3--3--3--3--3--3--|--------------------------|


  PM PM PM PM PM PM PM PM    PM PM PM PM PM PM PM PM  
  E  E  E  E  E  E  E  E     E  E  E  E  E  E  E  E   
--------------------------|--------------------------|
--------------------------|--------------------------|
--------------------------|--------------------------|
--------------------------|--7--7--7--7--7--7--7--7--|
--5--5--5--5--5--5--5--5--|--5--5--5--5--5--5--5--5--|
--3--3--3--3--3--3--3--3--|--------------------------|


  PM PM PM PM PM PM PM PM                                                    
  E  E  E  E  E  E  E  E     E   E  E  E  H           E   E  E  E  H         
--------------------------|------------------------|------------------------|
--------------------------|------------------------|------------------------|
--------------------------|------------------------|------------------------|
--------------------------|---------------3--------|---------------3--------|
--5--5--5--5--5--5--5--5--|--5s--3--------3--------|--5s--3--------3--------|
--3--3--3--3--3--3--3--3--|--3---1--------1--------|--3---1--------1--------|


                    PM PM    PM                           PM PM      PM PM  
  E   E  E  E  Q    E  E     Q    Q    H           E   E  E  E  Q    E  E   
--------------------------|---------------------|--------------------------|
--------------------------|---------------------|--------------------------|
--------------------------|---------------------|--------------------------|
---------------3----------|-------5----3--------|---------------3----------|
--5s--3--------3----3--3--|--3----5----3--------|--5s--3--3--3--3----3--3--|
--3---1--------1----1--1--|--1----3----1--------|--3---1--1--1--1----1--1--|


         PM PM      PM PM           PM PM      PM PM    PM PM           PM PM  
  E   E  E  E  Q    E  E     E   E  E  E  Q    E  E     E  E  Q    Q    E  E   
--------------------------|--------------------------|------------------------|
--------------------------|--------------------------|------------------------|
--------------------------|--------------------------|------------------------|
---------------3----------|---------------3----------|--------5----3----------|
--5s--3--3--3--3----3--3--|--5s--3--3--3--3----3--3--|--3--3--5----3----3--3--|
--3---1--1--1--1----1--1--|--3---1--1--1--1----1--1--|--1--1--3----1----1--1--|


  PM PM PM PM PM PM PM PM    PM PM PM PM PM PM PM PM  
  E  E  E  E  E  E  E  E     E  E  E  E  E  E  E  E   
--------------------------|--------------------------|
--------------------------|--------------------------|
--------------------------|--------------------------|
--------------------------|--------------------------|
--3--3--3--3--3--3--3--3--|--3--3--3--3--3--3--3--3--|
--1--1--1--1--1--1--1--1--|--1--1--1--1--1--1--1--1--|


  PM PM PM PM PM PM PM PM    PM PM PM PM PM PM PM PM  
  E  E  E  E  E  E  E  E     E  E  E  E  E  E  E  E   
--------------------------|--------------------------|
--------------------------|--------------------------|
--------------------------|--------------------------|
--------------------------|--------------------------|
--3--3--3--3--3--3--3--3--|--3--3--5--5--3--3--3--3--|
--1--1--1--1--1--1--1--1--|--1--1--3--3--1--1--1--1--|


  PM PM PM PM PM PM PM PM    PM PM PM PM PM PM PM PM  
  E  E  E  E  E  E  E  E     E  E  E  E  E  E  E  E   
--------------------------|--------------------------|
--------------------------|--------------------------|
--------------------------|--------------------------|
--------------------------|--------------------------|
--3--3--3--3--3--3--3--3--|--3--3--3--3--3--3--3--3--|
--1--1--1--1--1--1--1--1--|--1--1--1--1--1--1--1--1--|


  PM PM PM PM PM PM PM PM    PM PM PM PM PM PM PM PM  
  E  E  E  E  E  E  E  E     E  E  E  E  E  E  E  E   
--------------------------|--------------------------|
--------------------------|--------------------------|
--------------------------|--------------------------|
--------------------------|--------------------------|
--3--3--3--3--3--3--3--3--|--3--3--5--5--3--3--3--3--|
--1--1--1--1--1--1--1--1--|--1--1--3--3--1--1--1--1--|


  PM PM PM PM PM PM PM PM    PM PM PM PM PM PM PM PM  
  E  E  E  E  E  E  E  E     E  E  E  E  E  E  E  E   
--------------------------|--------------------------|
--------------------------|--------------------------|
--------------------------|--------------------------|
--------------------------|--------------------------|
--3--3--3--3--3--3--3--3--|--3--3--3--3--3--3--3--3--|
--1--1--1--1--1--1--1--1--|--1--1--1--1--1--1--1--1--|


  PM PM PM PM PM PM PM PM    PM PM PM PM PM PM PM PM  
  E  E  E  E  E  E  E  E     E  E  E  E  E  E  E  E   
--------------------------|--------------------------|
--------------------------|--------------------------|
--------------------------|--------------------------|
--------------------------|--------------------------|
--3--3--3--3--3--3--3--3--|--3--3--5--5--3--3--3--3--|
--1--1--1--1--1--1--1--1--|--1--1--3--3--1--1--1--1--|


  PM PM PM PM PM PM PM PM    PM PM PM PM PM PM PM PM  
  E  E  E  E  E  E  E  E     E  E  E  E  E  E  E  E   
--------------------------|--------------------------|
--------------------------|--------------------------|
--------------------------|--------------------------|
--------------------------|--------------------------|
--3--3--3--3--3--3--3--3--|--3--3--3--3--3--3--3--3--|
--1--1--1--1--1--1--1--1--|--1--1--1--1--1--1--1--1--|


  PM PM PM PM PM PM PM PM    PM PM PM PM PM PM PM PM  
  E  E  E  E  E  E  E  E     E  E  E  E  E  E  E  E   
--------------------------|--------------------------|
--------------------------|--------------------------|
--------------------------|--------------------------|
--------------------------|--------------------------|
--3--3--3--3--3--3--3--3--|--3--3--5--5--3--3--3--3--|
--1--1--1--1--1--1--1--1--|--1--1--3--3--1--1--1--1--|


  PM PM PM PM PM PM PM PM    PM PM PM PM PM PM PM PM  
  E  E  E  E  E  E  E  E     E  E  E  E  E  E  E  E   
--------------------------|--------------------------|
--------------------------|--------------------------|
--------------------------|--------------------------|
--7--7--7--7--7--7--7--7--|--------------------------|
--5--5--5--5--5--5--5--5--|--5--5--5--5--5--5--5--5--|
--------------------------|--3--3--3--3--3--3--3--3--|


  PM PM PM PM PM PM PM PM    PM PM PM PM PM PM PM PM  
  E  E  E  E  E  E  E  E     E  E  E  E  E  E  E  E   
--------------------------|--------------------------|
--------------------------|--------------------------|
--------------------------|--------------------------|
--7--7--7--7--7--7--7--7--|--------------------------|
--5--5--5--5--5--5--5--5--|--5--5--5--5--5--5--5--5--|
--------------------------|--3--3--3--3--3--3--3--3--|


  PM PM PM PM PM PM PM PM    PM PM PM PM PM PM PM PM  
  E  E  E  E  E  E  E  E     E  E  E  E  E  E  E  E   
--------------------------|--------------------------|
--------------------------|--------------------------|
--------------------------|--------------------------|
--7--7--7--7--7--7--7--7--|--------------------------|
--5--5--5--5--5--5--5--5--|--5--5--5--5--5--5--5--5--|
--------------------------|--3--3--3--3--3--3--3--3--|


  PM PM PM PM PM PM PM PM    PM PM PM PM PM PM PM PM  
  E  E  E  E  E  E  E  E     E  E  E  E  E  E  E  E   
--------------------------|--------------------------|
--------------------------|--------------------------|
--------------------------|--------------------------|
--7--7--7--7--7--7--7--7--|--------------------------|
--5--5--5--5--5--5--5--5--|--5--5--5--5--5--5--5--5--|
--------------------------|--3--3--3--3--3--3--3--3--|


  PM PM PM PM PM PM PM PM    PM PM PM PM PM PM PM PM  
  E  E  E  E  E  E  E  E     E  E  E  E  E  E  E  E   
--------------------------|--------------------------|
--------------------------|--------------------------|
--------------------------|--------------------------|
--7--7--7--7--7--7--7--7--|--------------------------|
--5--5--5--5--5--5--5--5--|--5--5--5--5--5--5--5--5--|
--------------------------|--3--3--3--3--3--3--3--3--|


  PM PM PM PM PM PM PM PM    PM PM PM PM PM PM PM PM  
  E  E  E  E  E  E  E  E     E  E  E  E  E  E  E  E   
--------------------------|--------------------------|
--------------------------|--------------------------|
--------------------------|--------------------------|
--7--7--7--7--7--7--7--7--|--------------------------|
--5--5--5--5--5--5--5--5--|--5--5--5--5--5--5--5--5--|
--------------------------|--3--3--3--3--3--3--3--3--|


  PM PM PM PM PM PM PM PM    PM PM PM PM PM PM PM PM                      
  E  E  E  E  E  E  E  E     E  E  E  E  E  E  E  E     W                 
--------------------------|--------------------------|-------------------|
--------------------------|--------------------------|-------------------|
--------------------------|--------------------------|--7----------------|
--7--7--7--7--7--7--7--7--|--------------------------|-------------------|
--5--5--5--5--5--5--5--5--|--5--5--5--5--5--5--5--5--|-------------------|
--------------------------|--3--3--3--3--3--3--3--3--|-------------------|


  H        H            E   E  E  E  H           E   E  E  E  H         
---------------------|------------------------|------------------------|
---------------------|------------------------|------------------------|
--L--------L\--------|------------------------|------------------------|
---------------------|---------------3--------|---------------3--------|
---------------------|--5s--3--------3--------|--5s--3--------3--------|
---------------------|--3---1--------1--------|--3---1--------1--------|


                    PM PM    PM                           PM PM      PM PM  
  E   E  E  E  Q    E  E     Q    Q    H           E   E  E  E  Q    E  E   
--------------------------|---------------------|--------------------------|
--------------------------|---------------------|--------------------------|
--------------------------|---------------------|--------------------------|
---------------3----------|-------5----3--------|---------------3----------|
--5s--3--------3----3--3--|--3----5----3--------|--5s--3--3--3--3----3--3--|
--3---1--------1----1--1--|--1----3----1--------|--3---1--1--1--1----1--1--|


         PM PM      PM PM           PM PM      PM PM    PM PM                 
  E   E  E  E  Q    E  E     E   E  E  E  Q    E  E     E  E  Q    H          
--------------------------|--------------------------|----------------------||
--------------------------|--------------------------|----------------------||
--------------------------|--------------------------|----------------------||
---------------3----------|---------------3----------|--------5----3--------||
--5s--3--3--3--3----3--3--|--5s--3--3--3--3----3--3--|--3--3--5----3--------||
--3---1--1--1--1----1--1--|--3---1--1--1--1----1--1--|--1--1--3----1--------||

Добавлено: 06.07.2012
Другие материалы по этой песне:
  • Аккорды и текст

Страница создана 18.04.2012
http://primanota.ru/jaya-the-cat/shit-jobs-for-rock-chords.htm
Привет, Гость.
Предлагаем пройти революционный курс по гитаре.
Подарок от PrimaNota.Ru, забирай!