PrimaNota.ru - самый крупный в мире бесплатный архив песенных текстов, аккордов, табулатур и нот


Jaya The Cat - Bottle Left Me - бас-таба, видео

Регистрация Запомнить меня
Войти через:  Facebook Google Twitter Vk Yandex Mail.ru

Jaya The Cat - Bottle Left Me - бас-таба, видео

Печатать
Просмотров: 120
Here's the bass tab of The Bottle Left Me.
I'm fan of jaya for a long time already so i thought i'd figure out some tabs so you can play them yourself.

I don't know for sure how much times to strike the notes but
this sounds good.

(Standard Tuning for this)


Intro

G|----------------------------------------------------------------------------|
D|----------------------------------------------------------------------------|
A|-3--------------------------------------------------------------------------|
E|---3-1----------------------------------------------------------------------|


Verse (Play this 4 times)

G|----------------------------------------------------------------------------|
D|-------------------------------------2-0-----2-0----------------------------|
A|-0-3-0-3-0---0-3-0-3-0---0-3-0-3-0-------2-0-----2-0------------------------|
E|-----------1-----------3-----------1----------------------------------------|


Pre-Chorus (Play this 2 times)

G|----------------------------------------------------------------------------|
D|---------2-------2----------------------------------------------------------|
A|-0-----0---0----------------------------------------------------------------|
E|---0-1-------0-1------------------------------------------------------------|


Chorus

G|----------------------------------------------------------------------------|
D|----------------------------------------------------------------------------|
A|-3-------3-------3---0---3--------------------------------------------------|
E|---3-1-3---3-1-1---3---1---3-1-(1)------------------------------------------|


Outro

G|----------------------------------------------------------------------------|
D|----------------------------------------------------------------------------|
A|-3-3-3-3---------0-0-0-0---------3------------------------------------------|
E|---------3-3-3-3---------1-1-1-1---3-1--------------------------------------|



Добавлено: 10.05.2012
Другие материалы по этой песне:
  • Аккорды и текст

Страница создана 10.05.2012
http://primanota.ru/jaya-the-cat/bottle-left-me-chords.htm
Привет, Гость.
Предлагаем пройти революционный курс по гитаре.
Подарок от PrimaNota.Ru, забирай!