PrimaNota.ru - самый крупный в мире бесплатный архив песенных текстов, аккордов, табулатур и нот


Jay-Z - Dirt Off Your Shoulders Lying From You (feat. Linkin Park) - таба, видео

Регистрация Запомнить меня
Войти через:  Facebook Google Twitter Vk Yandex Mail.ru

Jay-Z - Dirt Off Your Shoulders Lying From You (feat. Linkin Park) - таба, видео

Печатать
Просмотров: 221
Originally Tabbed by: Sebastian Major

Corrected by: David Chiaramonte

I saw this song tabbed on this website, but it was off a bit so I figured I would change 
was wrong so everyone can play it right. NO OFFENSE TO WHO TABBED THIS FIRST. I just 
to change it for you!!!!

Tuning: Standard E,A,D,G,B,e

/ = Slide down
X = make sure that only the high hat is playing on this part. no guitar or music in the background.

Verse 1

E|--------------------------------|
B|--------------------------------|
G|--------------------------------|
D|--------------------------------|
A|6-6-------------9-9------44-4444|
E|6-6-------------9-9------44-4444|

E|--------------------------------|
B|--------------------------------|
G|--------------------------------|
D|--------------------------------|
A|6-6-------------9-9-99-9-44-4444|
E|6-6-------------9-9-99-9-44-4444|

E|--------------------------------|
B|--------------------------------|
G|--------------------------------|
D|--------------------------------|
A|6-6-------------9-9------44-4444|
E|6-6-------------9-9------44-4444| X 5

E|--------------------------------|
B|--------------------------------|
G|--------------------------------|
D|--------------------------------|
A|6-6-------------9-9-------------|
E|6-6-------------9-9-------------|

Chorus 1

E|--------------------------------|
B|--------------------------------|
G|--------------------------------|
D|--------------------------------|
A|6-6-------------9-9------44-4444|
E|6-6-------------9-9------44-4444| X 4

Verse 2

E|---------X-------------X----------|
B|---------X-------------X----------|
G|---------X-------------X----------|
D|---------X-------------X----------|
A|6-6------X-------9-9---X---44-4444|
E|6-6------X-------9-9---X---44-4444|

E|---------X-------------X------------|
B|---------X-------------X------------|
G|---------X-------------X------------|
D|---------X-------------X------------|
A|6-6------X-------9-9-99-9-44-4444---|
E|6-6------X-------9-9-99-9-44-4444---|

E|---------X-------------X----------|
B|---------X-------------X----------|
G|---------X-------------X----------|
D|---------X-------------X----------|
A|6-6------X-------9-9---X---44-4444|
E|6-6------X-------9-9---X---44-4444|

E|---------X-------------X----------|
B|---------X-------------X----------|
G|---------X-------------X----------|
D|---------X-------------X----------|
A|6-6------X-------9-9---X----------|
E|6-6------X-------9-9---X----------|

E|--------------------------------|
B|--------------------------------|
G|--------------------------------|
D|--------------------------------|
A|6-6-------------9-9------44-4444|
E|6-6-------------9-9------44-4444| x4

Chorus 2
(Where Linkin Park starts singing)

E|--------------------------------|
B|--------------------------------|
G|--------------------------------|
D|--------------------------------|
A|6-6-------------9-9------44-4444|
E|6-6-------------9-9------44-4444|

E|-----------------------------------|
B|----6666----4444-------------------|
G|--------6666-----------------------|
D|-----------------------------------|
A|6-6-------------9-9-99--9---44-4444|
E|6-6-------------9-9-99--9---44-4444| X 3

E|-----------------------------------|
B|----6666----4444-------------------|
G|--------6666-----------------------|
D|-----------------------------------|
A|6-6-------------9-9-99--9---99-9999|
E|6-6-------------9-9-99--9---99-9999|

E|--------------------------------|
B|--------------------------------|
G|--------------------------------|
D|------------------------------4-|
A|4--6---5---4---7---6---5---4----|
E|--------------------------------| X 8

E|-----------------------------------|
B|----6666----4444-------------------|
G|--------6666-----------------------|
D|-----------------------------------|
A|6-6-------------9-9-99--9---44-4444|
E|6-6-------------9-9-99--9---44-4444| X 3

E|-----------------------------------|
B|----6666----4444-------------------|
G|--------6666-----------------------|
D|-----------------------------------|
A|6-6-------------9-9-99--9---99-9999|
E|6-6-------------9-9-99--9---99-9999|

Optional:
at the end of the song when Dirt Off Your Shoulders (the beat) ends, play this to end it:

E|-12/1-------|
B|-12/1-------|
G|-12/1-------|
D|-12/1-------|
A|-12/1-------|
E|-12/1-------|


I'm 99.9999-100% sure thats right. Comment please. Also, I gotta give props to the guy 
tabbed this first. He was the one who helped me tab it correctly!!!!

--------------------------------------------------------------------------------
See what's free at AOL.com.
Добавлено: 08.10.2013
Другие материалы по этой песне:
  • Аккорды и текст

Страница создана 08.10.2013
http://primanota.ru/jay-z/dirt-off-your-shoulders-lying-from-you-chords.htm
Привет, Гость.
Предлагаем пройти революционный курс по гитаре.
Подарок от PrimaNota.Ru, забирай!