PrimaNota.ru - самый крупный в мире бесплатный архив песенных текстов, аккордов, табулатур и нот


Jay-Z - All i Need - текст песни, бас-таба, видео

Регистрация Запомнить меня
Войти через:  Facebook Google Twitter Vk Yandex Mail.ru

Jay-Z - All i Need - текст песни, бас-таба, видео

Печатать
Просмотров: 227


Artist(s): Jay-Z
Song: All I Need
Track: 11
Title: The Blueprint
Release date: 11 September, 2001
Publisher: Rocafella Records
Bass tab transcribed by Chris Reigstad (all my work)

All I Need by Jay-Z

I think sometimes Part A is played before D and Part C before B. Also Parts A and B sound
like they may be pitch-shifted down an octave for extra low end. Def licks.

PART A            PART B
|----------------|-----875-5------|
|5-----6---------|---56---5-5-5---|
|----------------|-56--------6-65-|
|3-----4---------|8---------------|

PART C            PART D
|----------------|----------------|
|5-----10--------|65--------------|
|----------------|--6565----------|
|3-----8---------|------83--------|

Listen for the timing. Good luck.

Transcribed by Chris Reigstad (chrisreigstad@gmail.com)

Добавлено: 11.10.2013
Другие материалы по этой песне:
  • Аккорды и текст

Страница создана 11.03.2012
http://primanota.ru/jay-z/all-i-need-chords.htm
Привет, Гость.
Предлагаем пройти революционный курс по гитаре.
Подарок от PrimaNota.Ru, забирай!