PrimaNota.ru - самый крупный в мире бесплатный архив песенных текстов, аккордов, табулатур и нот


Jay Ollero - We Could Be Anything - таба, видео

Регистрация Запомнить меня
Войти через:  Facebook Google Twitter Vk Yandex Mail.ru

Jay Ollero - We Could Be Anything - таба, видео

Печатать
Просмотров: 75
-------------------------------------------------------------------------------
                WE COULD BE ANYTHING (BLACK AND WHITE) - Jay Ollero
-------------------------------------------------------------------------------
Tabbed by: AnnoyingXP
E-mail: annoyingXP@hotmail.com

Tuning: Half-step down

Hey guys! Stumbled upon this song and really liked it, but there were no tabs
available. So this is the way I play it. Hope you enjoy!

Note: I've included the chords and rhythm at the top.
The chords are there in case you just want to strum along to the song.


CHORDS USED:
     G    Dsus4/F#  Em7    Cadd9    Am7      D
eb|--3-------3-------3-------3-------3-------2--|
Bb|--3-------3-------3-------3-------1-------3--|
Gb|--0-------2-------0-------0-------0-------2--|
Db|--0-------0-------2-------2-------2-------0--|
Ab|--x-------x-------2-------3-------0----------|
Eb|--3-------2-------0--------------------------|


INTRO/VERSE 1/CHORUS:
     1 e + a 2 e + a 3 e + a 4 e + a 
eb|-----------------------------------|
Bb|-----------------------------------|
Gb|-----------------------------------|
Db|-----------------------------------|
Ab|--------------------------10\------|
Eb|-----------------------------------| 

     G                               Dsus4/F#                          \
     1 e + a 2 e + a 3 e + a 4 e + a 1 e + a 2 e + a 3 e + a 4 e + a    |
eb|------3-------3-------3-------3-------3-------3-------3-------3----| |
Bb|------3-------3-------3-------3-------3-------3-------3-------3----| |
Gb|-------------------------------------------------------------------| |
Db|--5-------x-5-----5-------x-5-----4-------x-4-----4-------x-4------| |
Ab|----------x---------------x---------------x---------------x--------| |
Eb|----------x---------------x---------------x---------------x--------| |
                                                                        |- 5x 
     Em7                             Cadd9                              |
     1 e + a 2 e + a 3 e + a 4 e + a 1 e + a 2 e + a 3 e + a 4 e + a    |
eb|------3-------3-------3-------3-------3-------3-------3-------3----| |
Bb|------3-------3-------3-------3-------3-------3-------3-------3----| |
Gb|-------------------------------------------------------------------| |
Db|--2-------x-2-----2-------x-2-------------x---------------x--------| |
Ab|----------x---------------x-------3-------x-3-----3-------x-3------| |
Eb|----------x---------------x---------------x---------------x--------| |
                                                                       /
     G
     1 e + a 2 e + a 3 e + a 4 e + a
eb|------3-------3-------3-------3----|
Bb|------3-------3-------3-------3----|
Gb|-----------------------------------|
Db|--5-------x-5-----5-------x-5------|
Ab|----------x---------------x--------|
Eb|----------x---------------x--------|


VERSE 2/CHORUS 2:
     G                               Dsus4/F#                           
     1 e + a 2 e + a 3 e + a 4 e + a 1 e + a 2 e + a 3 e + a 4 e + a    
eb|------3-------3-------3-------3-------3-------3-------3-------3----| 
Bb|------3-------3-------3-------3-------3-------3-------3-------3----| 
Gb|-------------------------------------------------------------------| 
Db|----------x-------x-------x-------x-------x-------x-------x--------| 
Ab|----------x-------x-------x-------x-------x-------x-------x--------| 
Eb|----------x-------x-------x-------x-------x-------x-------x--------| 
                                                                        
     Em7                             Cadd9                           
     1 e + a 2 e + a 3 e + a 4 e + a 1 e + a 2 e + a 3 e + a 4 e + a    
eb|------3-------3-------3-------3-------3-------3-------3-------3----| 
Bb|------3-------3-------3-------3-------3-------3-------3-------3----| 
Gb|-------------------------------------------------------------------| 
Db|--x-------x-------x-------x-------x-------x-------x-------x--------| 
Ab|--x-------x-------x-------x-------x-------x-------x-------x--------| 
Eb|--x-------x-------x-------x-------x-------x-------x-------x--------|
                                                                       
     G                               Dsus4/F#                          \
     1 e + a 2 e + a 3 e + a 4 e + a 1 e + a 2 e + a 3 e + a 4 e + a    |
eb|------3-------3-------3-------3-------3-------3-------3-------3----| |
Bb|------3-------3-------3-------3-------3-------3-------3-------3----| |
Gb|-------------------------------------------------------------------| |
Db|--5-------x-5-----5-------x-5-----4-------x-4-----4-------x-4------| |
Ab|----------x---------------x---------------x---------------x--------| |
Eb|----------x---------------x---------------x---------------x--------| |
                                                                        |- 5x 
     Em7                             Cadd9                              |
     1 e + a 2 e + a 3 e + a 4 e + a 1 e + a 2 e + a 3 e + a 4 e + a    |
eb|------3-------3-------3-------3-------3-------3-------3-------3----| |
Bb|------3-------3-------3-------3-------3-------3-------3-------3----| |
Gb|-------------------------------------------------------------------| |
Db|--2-------x-2-----2-------x-2-------------x---------------x--------| |
Ab|----------x---------------x-------3-------x-3-----3-------x-3------| |
Eb|----------x---------------x---------------x---------------x--------| |
                                                                       /

BRIDGE:
     Am7                             D                              
     1 e + a 2 e + a 3 e + a 4 e + a 1 e + a 2 e + a 3 e + a 4 e + a    
eb|------8-------8-------8-------8-------5-------5-------5-------5----| 
Bb|------8-------8-------8-------8-------7-------7-------7-------7----| 
Gb|-------------------------------------------------------------------|
Db|--7-------x-7-----7-------x-7-----0-------x-0-----0-------x-0------| 
Ab|----------x---------------x---------------x---------------x--------| 
Eb|----------x---------------x---------------x---------------x--------| 
                                                                       
     Am7                             D                              
     1 e + a 2 e + a 3 e + a 4 e + a 1 e + a 2 e + a 3 e + a 4 e + a    
eb|------8-------8-------8-------8-------5-------5--------------------| 
Bb|------8-------8-------8-------8-------7-------7--------------------| 
Gb|-------------------------------------------------------------------|
Db|--7-------x-7-----7-------x-7-----0-------x-0-----0~---------------| 
Ab|----------x---------------x---------------x------------------------| 
Eb|----------x---------------x---------------x------------------------| 


CHORUS 3:
      G    D/F#  Em7  Cadd9
eb|---------------3~----3---3--3--|
Bb|---8~----7~----3~----3---3--3--|
Gb|---0~----7~----0~----0---0--0--|
Db|---9~----0~----2~----2---------|
Ab|--10~----9~----2~----3---------|
Eb|-------------------------------|

     G                               Dsus4/F#                           
     1 e + a 2 e + a 3 e + a 4 e + a 1 e + a 2 e + a 3 e + a 4 e + a    
eb|------3-------3-------3-------3-------3-------3-------3-------3----| 
Bb|------3-------3-------3-------3-------3-------3-------3-------3----| 
Gb|-------------------------------------------------------------------| 
Db|----------x-------x-------x-------x-------x-------x-------x--------| 
Ab|----------x-------x-------x-------x-------x-------x-------x--------| 
Eb|----------x-------x-------x-------x-------x-------x-------x--------| 
                                                                        
     Em7                             Cadd9                           
     1 e + a 2 e + a 3 e + a 4 e + a 1 e + a 2 e + a 3 e + a 4 e + a    
eb|------3-------3-------3-------3-------3-------3-------3-------3----| 
Bb|------3-------3-------3-------3-------3-------3-------3-------3----| 
Gb|-------------------------------------------------------------------| 
Db|--x-------x-------x-------x-------x-------x-------x-------x--------| 
Ab|--x-------x-------x-------x-------x-------x-------x-------x--------| 
Eb|--x-------x-------x-------x-------x-------x-------x-------x--------|
                                                                       
     G                               Dsus4/F#                          \
     1 e + a 2 e + a 3 e + a 4 e + a 1 e + a 2 e + a 3 e + a 4 e + a    |
eb|------3-------3-------3-------3-------3-------3-------3-------3----| |
Bb|------3-------3-------3-------3-------3-------3-------3-------3----| |
Gb|-------------------------------------------------------------------| |
Db|--5-------x-5-----5-------x-5-----4-------x-4-----4-------x-4------| |
Ab|----------x---------------x---------------x---------------x--------| |
Eb|----------x---------------x---------------x---------------x--------| |
                                                                        |- 2x 
     Em7                             Cadd9                              |
     1 e + a 2 e + a 3 e + a 4 e + a 1 e + a 2 e + a 3 e + a 4 e + a    |
eb|------3-------3-------3-------3-------3-------3-------3-------3----| |
Bb|------3-------3-------3-------3-------3-------3-------3-------3----| |
Gb|-------------------------------------------------------------------| |
Db|--2-------x-2-----2-------x-2-------------x---------------x--------| |
Ab|----------x---------------x-------3-------x-3-----3-------x-3------| |
Eb|----------x---------------x---------------x---------------x--------| |
                                                                       /

     Cadd9                              
     1 e + a 2 e + a 3 e + a 4 e + a 1 e + a 2 e + a 3 e + a 4 e + a    
eb|------3-------3-------3-------3-------3-------3--------------------| 
Bb|------3-------3-------3-------3-------3-------3--------------------| 
Gb|-------------------------------------------------------------------| 
Db|----------x---------------x---------------x------------------------| 
Ab|--3-------x-3-----3-------x-3-----3-------x-3-----3~---------------| 
Eb|----------x---------------x---------------x------------------------| 


************************************

| \   slide down
| ~   let it ring
| x   mute/tap string

************************************
Добавлено: 14.06.2016
Другие материалы по этой песне:
  • Аккорды и текст

Страница создана 14.06.2016
http://primanota.ru/jay-ollero/we-could-be-anything-chords.htm
Привет, Гость.
Предлагаем пройти революционный курс по гитаре.
Подарок от PrimaNota.Ru, забирай!