PrimaNota.ru - самый крупный в мире бесплатный архив песенных текстов, аккордов, табулатур и нот


Jay-Jay Johanson - Alone Again - таба, видео

Регистрация Запомнить меня
Войти через:  Facebook Google Twitter Vk Yandex Mail.ru

Jay-Jay Johanson - Alone Again - таба, видео

Печатать
Просмотров: 70
Уроки эстрадного вокала в Санкт-Петербурге
Song: Alone Again
Artist: Jay-Jay Johanson
Album: Poison
Year: 2000
Tabber: beranger80@hotmail.com



Intro (0:00)


  Cm             Bm          Cm             C#
e--------------|-----------|--------------|------------|
B--8-9-11------|-----------|--8-9-11------|------------|
G---------7-8--|-----------|---------7-8--|------------|
D--------------|--8--------|--------------|--6---------|
A--------------|-----------|--------------|------------|
E--------------|-----------|--------------|------------|
               |           |              |            | x2
e----------3---|-----------|-----------3--|------------|
B--------------|--------6--|--------------|---------8--|
G--------5-----|------4----|--------5-----|------6-----|
D-----5--------|----4------|-----5--------|----6-------|
A--3-----------|--2--------|--3-----------|--4---------|
E--------------|-----------|--------------|------------|



Verse (0:24)
     
  Cm          C#          Bm          Cm
e--------3--|--------4--|-----------|---------3--|
B-----------|-----------|--------6--|------------|
G------5----|------6----|------4----|------5-----|
D----5------|----6------|----4------|----5-------|
A--3--------|--4--------|--2--------|--3---------|
E-----------|-----------|-----------|------------|x2

       Cm                          C#
How could a love like ours come to an end
      Bm                     Cm
We had it all but lost it 'round the bend
         Cm                        C# 
There's something that I'll never understand
     Bm                         Cm
Why now it seems like hurting's close at hand



Chorus (0:48)

        Cm       A#   Cm
But I'm alone again, alone again
     Fm    A#             Cm
Though the years that pass divide us
        Cm       A#    Fm
I am alone again, alone again
        Cm    A#     Cm
Something'll never keep us apart



Post Chorus (1:13)

e--------------|
B--8-9-11------|
G---------7-8--|
D--------------|
A--------------|
E--------------|
               |
e-----------3--|
B--------------|
G--------5-----|
D-----5--------|
A--3-----------|
E--------------|



Verse (1:17)

       Cm                          C#
There's one love left between us that will stay
      Bm                     Cm
When memories can slowly fade away
         Cm                        C# 
Though feelings changed ever since we met
     Bm                         Cm
Our little daughter won't let us forget



Chorus (1:41)

        Cm       A#   Cm
But I'm alone again, alone again
     Fm    A#             Cm
Though the years that pass divide us
        Cm       A#    Fm
I am alone again, alone again
        Cm    A#     Cm
Something'll always keep us close



Bridge (2:05)

e-----------|-----------|------------|-------11---|
B--13-------|--12--9----|--8---------|--12--------|
G-----------|-----------|------------|------------|
D-----------|-----------|------------|------------|
A-----------|-----------|------------|------------|
E-----------|-----------|------------|------------|
            |           |            |            | x2
e--------3--|-----------|---------3--|------------|
B-----------|--------6--|------------|---------9--|
G------5----|------4----|------5-----|------6-----|
D----5------|----4------|----5-------|----6-------|
A--3--------|--2--------|--3---------|--4---------|
E-----------|-----------|------------|------------|



Verse (2:31)

       Cm                          C#
I see her one weekend now and then
      Bm                     Cm
I've realized I'm like a long lost friend
         Cm                        C# 
She has your eyes, your funny little smile
     Bm                         Cm
Her lovely laugh brings you back for a while



Chorus (2:55)

        Cm       A#   Cm
But I'm alone again, alone again
     Fm    A#             Cm
Though the years that pass divide us
        Cm       A#    Fm
I am alone again, alone again
        Cm    A#     Cm
Our little daughter keep us close



Bridge (3:17)

e--------------|----------|
B--8-9-11------|----------|
G---------7-8--|----------|
D--------------|----8-----|
A--------------|----------|
E--------------|----------|
               |          | x8
e----------6---|----------|
B--------8-----|--------4-|
G------8-------|------5---|
D----8---------|----5-----|
A--6-----------|--3-------|
E--------------|----------|



Solo (4:05)

e------------|--------------------------------|
B--8-9-11----|--11-9-11-11\13-13-13-11-11-11--|
G---------7--|--------------------------------|
D------------|--------------------------------|
A------------|--------------------------------|
E------------|--------------------------------|

4:15
e------------------------------|
B--11-11-11-9-9-9-8-8-8--------|
G-----------------------8-8-8--|
D------------------------------|
A------------------------------|
E------------------------------|

4:21
e-------------|---------------------------------------||
B-------------|--8------------------------------------||
G--8-7-8-7-8--|--8-5--5-8-8--8-10-10--10-12-12-12-12--||
D-------------|---------------------------------------||
A-------------|---------------------------------------||
E-------------|---------------------------------------||
Добавлено: 22.03.2016
Другие материалы по этой песне:
  • Аккорды и текст

Страница создана 22.03.2016
http://primanota.ru/jay-jay-johanson-2/alone-again-chords.htm
Привет, Гость.
Предлагаем пройти революционный курс по гитаре.
Подарок от PrimaNota.Ru, забирай!