PrimaNota.ru - самый крупный в мире бесплатный архив песенных текстов, аккордов, табулатур и нот


Jay Chou - Zhou Da Xia - текст песни, таба, видео

Регистрация Запомнить меня
Войти через:  Facebook Google Twitter Vk Yandex Mail.ru

Jay Chou - Zhou Da Xia - текст песни, таба, видео

Печатать
Просмотров: 200
Уроки эстрадного вокала в Санкт-Петербурге
Jay Chou - Zhou Da Xia

Standard tuning


Intro: Ebm

       Ebm - C# - B - Bb


(this lead is played thoughout most of the song)

e|-----------------------------------|
B|-----------------------------------|
G|-----------------------------------|
D|--------------6-6-------------6-6--|
A|--6-6-9-9-6-6-----6-6-9-9-6-6------|
E|-----------------------------------|

e|-----------------------------------|
B|-----------------------------------|
G|-----------------------------------|
D|------4-4-----6-6-----4-4-----6-6--|
A|--4-4-----4-4-----4-4-----4-4------|
E|-----------------------------------|

e|-----------------------------------|
B|-----------------------------------|
G|-----------------------------------|
D|------4-4-----6-6-----4-4-----6-6--|
A|--2-2-----2-2-----2-2-----2-2------|
E|-----------------------------------|

e|-----------------------------------|
B|-----------------------------------|
G|-----------------------------------|
D|------3-3-----4-4-----3-3-----4-4--|
A|--1-1-----1-1-----1-1-----1-1------|
E|-----------------------------------|


Verse1:
Ebm
Wo Yi Jiao Ti Fei Yi Chuan Chuan Hong Hong De Hu Lu Bing Tang
C#
Wo Yi Quan Da Fei Yi Mu Mu De Hui Yi San Zai Yue Guang
B
Yi Jie Lao Lao De Lao Jiang Yi Duan Jiu Jiu De Jiu Shi Guang
Bb
Wo Ke Yi Gei Ni Men Yi Zhang Qian Ming Zhao Na Qu Xiang Xiang
Ebm
Wo Shuo A Ping Feng Jiu Gai Zhe Bing Shuang Wu Yan Jiu Gai Dang Yue Guang
C#
Jiang Hu Jiu Gai Kai Shan Chuang Ping Ju Jiu Gai Shua Hua Qiang
B
Zha Xia Ma Bu Wo Bu Yao Huang
Bb
Men Le Huang Le Juan Le Wo Jiu Chuan Shang Gong Fu Zhuang


Chorus:
Ebm
Wo Bu Mai Dou Fu (Dou Fu) Dou Fu (Dou Fu)
C#
Wo Zai Wu Gong Xue Xiao Li Xue De Na Jiao Gong Fu
B
Gong Fu (Gong Fu) Gong Fu (Gong Fu)
Bb
Gan Jin Chuan Shang Qi Pao Mian De Ni Shuo Wo Chi Ni Dou Fu
Ebm
Ni Jiu Xiang Dou Fu (Dou Fu) Dou Fu (Dou Fu)
C#
Chui Tan Ke Po De Ji Fu Zai Shi Lian Wo Gong Fu
B
Gong Fu (Gong Fu) Gong Fu (Gong Fu)
Bb
Gan Jin Chuan Shang Qi Pao Mian De Ni Shuo Wo Chi Ni Dou Fu


(announcement bell chime)

e|--(6)----------------------(6)--|   
B|-----(6)----------------(6)-----|
G|--------(7)----------(7)--------|
D|-----------(8)----(8)-----------|
A|--------------------------------|
E|--------------------------------|


Verse2:
Ebm
Wo Shao Wei Shen Zhan Quan Jiao Ni Jiu Gun Dao Bian Jiang
C#
Hui Xuan Ti Tai Yong Li Hua Mian Jiu Bian De Hen Huang Liang
B
Luo Hua Pei Dui Pei Xi Yang Fan Shan Yue Ling Du Guo Jiang
Bb
Wo Qing Yi Qing Sang Qing Yi Qing Sang Chang Qi Qin Qiang
Ebm
Fei Tian Fei Dun Huang Bei Fang Bei Da Huang
C#
Shui Zai Shui Yi Fang Wo Cheng Qi Yi Ba Zhi San Hui Tou Wang
B
A Zhe Shen Me Di Fang Zhe Shen Me Zhuang Kuang La La La La La
Bb
Men Le Huang Le Juan Le Wo Jiu Cai Zai Ni Jian Bang


Ebm - C# - B - Bb     (with some whammy effect)


Chorus:
Ebm
Wo Bu Mai Dou Fu (Dou Fu) Dou Fu (Dou Fu)
C#
Wo Zai Wu Gong Xue Xiao Li Xue De Na Jiao Gong Fu
B
Gong Fu (Gong Fu) Gong Fu (Gong Fu)
Bb
Gan Jin Chuan Shang Qi Pao Mian De Ni Shuo Wo Chi Ni Dou Fu
Ebm
Ni Jiu Xiang Dou Fu (Dou Fu) Dou Fu (Dou Fu)
C#
Chui Tan Ke Po De Ji Fu Zai Shi Lian Wo Gong Fu
B
Gong Fu (Gong Fu) Gong Fu (Gong Fu)
Bb
Gan Jin Chuan Shang Qi Pao Mian De Ni Shuo Wo Chi Ni Dou Fu


End on Bb
Добавлено: 22.02.2012
Другие материалы по этой песне:
  • Аккорды и текст

Страница создана 22.02.2012
http://primanota.ru/jay-chou/zhou-da-xia-chords.htm
Привет, Гость.
Предлагаем пройти революционный курс по гитаре.
Подарок от PrimaNota.Ru, забирай!