PrimaNota.ru - самый крупный в мире бесплатный архив песенных текстов, аккордов, табулатур и нот


Jay Chou - Wo Bu Pei - таба, видео

Регистрация Запомнить меня
Войти через:  Facebook Google Twitter Vk Yandex Mail.ru

Jay Chou - Wo Bu Pei - таба, видео

Печатать
Просмотров: 133
Hey, ok theres twos ways i kinda worked out      Thanks to raynor1012, and Gakew ;)

1st tab will be the intro without a CAPO
2nd wud be with a  CAPO.


 Without a CAPO

 E|---------0~----0~--------0~-----0~---------0~-----0~----------0-----0~----------0~-----0~--|
B|--------------------------------------------------------------------------------------------|
G|-----1h2p--1h2p------1h2p---1h2p-------1h2p---1h2p--------1h2p--1h2p--------1h2p---1h2p-----|
D|---2~--------------2~----------------2~-----------------2~---------------0~~----------------|
A|-0~--------------0~-------------------------------------------------------------------------|
E|-----------------------------------2~-----------------2~------------------------------------|


 E|--------0~-----0~----------0~~------|
 B|------------------------------------|
 G|----1h2p---1h2p-------1h2~~---2~-4~-|
 D|-0~~---------------2~---------------|
 A|------------------------------------|
 E|------------------------------------|


     With a CAPO!!! on 2nd Fret!!!
 2nd FRET!!
  1st|2nd|3rd|
 E|--|[]|---------0~----0~--------0~-----0~-|
 B|--|[]|-----------------------------------|
 G|--|[]|-----1h2p--1h2p------1h2p---1h2p---|
 D|--|[]|---2~--------------2~--------------|
 A|--|[]|-0~--------------0~----------------|
 E|--|[]|-----------------------------------|
      ^
      This is the Capo

1st|2nd|3rd|
 E|--|[]|---------0~----0~--------0~-----0~-|
 B|--|[]|-----------------------------------|
 G|--|[]|-----1h2p--1h2p------1h2p---1h2p---|
 D|--|[]|---2~--------------2~--------------|
 A|--|[]|-----------------------------------|
 E|--|[]|-2~--------------2~----------------|

1st|2nd|3rd|
 E|--|[]|---------0~----0~--------0~-------~0~~-------|
 B|--|[]|---------------------------------------------|
 G|--|[]|-----1h2p--1h2p------1h2p-----1h2~~----2~-4~-|
 D|--|[]|--0~~-------------0~~------2~~---------------|
 A|--|[]|---------------------------------------------|
 E|--|[]|---------------------------------------------|


Working out the rest now ;)
 KEY:
  []   - Capo
   ~   - Ring
   h   - Hammer on
   p   - pull off
Добавлено: 28.03.2012
Другие материалы по этой песне:
  • Аккорды и текст

Страница создана 28.03.2012
http://primanota.ru/jay-chou/wo-bu-pei-chords.htm
Привет, Гость.
Предлагаем пройти революционный курс по гитаре.
Подарок от PrimaNota.Ru, забирай!