PrimaNota.ru - самый крупный в мире бесплатный архив песенных текстов, аккордов, табулатур и нот


Jay Chou - Tui Hou - аккорды и текст, таба, видео

Регистрация Запомнить меня
Войти через:  Facebook Google Twitter Vk Yandex Mail.ru

Jay Chou - Tui Hou - аккорды и текст, таба, видео

Печатать
Просмотров: 302
Tui Hou
Jay Chou
Jay Chou (周杰倫) - 依然范特西 (Still Fantasy) - 05 - 退後 (Tui Huo)


Tabbed by: Andrew Ho (andrew_ho_18@hotmail.com)

Standard tuning

C/B   - 320010
Am/G  - 302010
C/E   - 032010
Caug  - x32130 or 8765xx (x32130 sounds nicer)
Em7   - 022033
G/F   - 120003
Am/F# - 202210


Intro: C -C/B- Am -Am/G- F - C/E - Dm - G - C - Caug - C - Caug

e|----------------------3------------------------0---------------------------|
B|--3--3--3--1--0--1h3--------3--3--3--1--0--1h3-----------------------------|
G|--------0-------------------------0----------------------------------------|
D|---------------------------------------------------------------------------|
A|--3-----------------2-------0----------------------------------------------|
E|----------------------------------------3----------------------------------|

e|--0--0--0-------------------------------------------0-1-------------0-1----|
B|-----------3--3--3--3--1---1--1--1--3--3--0--1--1-3-----3----1--1-3-----3--|
G|---------------------------------------------0----------1----0----------1--|
D|--3------------------------0------------------2---------------2------------|
A|---------------------------------------------3----------3----3----------3--|
E|--------------0------------------------3-----------------------------------|


Verse:
C                      Em7
tian kong hui de xiang ku guo
          Am
li kai ni yi hou
                  Em7
bing mei you geng zi you
             F
suan suan de kong qi
    G/F           Em
xiu chu wo men de ju li
   Am             Dm
yi mu chui xin de jie ju
                   G
xiang hu xi ban wu fa ting xi

C                    Em7
chou ti fan huang de ri ji
           Am
zha gan le hui yi
                 Em7
na xiao rong shi xia ji
         F
ni wo de guo qu
    G/F              Em
bei shun shi zhen de wang ji
    Am              Dm
que yang guo hou de ai qing
                  G
cu xin de yan lei shi duo yu


Chorus:
   C                        C/B
wo zhi dao ni wo dou mei you cuo
Am                        Am/G
zhi shi wang le zen me tui hou
Dm
xin shi dan dan gei le cheng nuo
F                G
que bei shi jian pu le kong
   C                         C/B
wo zhi dao wo men dou mei you cuo
Am                         Am/G   Am/F#
zhi shi fang shou hui bi jiao hao guo
        Dm             G         C
zui mei de ai qing hui yi li dai xu


C - - Am - - F - - G


e|---------------------------------------------------------------------------------------|
B|---------------------------------------------------------------------------------------|
G|--7~-7h9-7-----7h9-7-----7h9-7-------------------/7~-7h9-7----7h9-7--------------------|
D|-----------9---------10--------9-10--12p10-9s10------------9--------10--12p10-9s10-9~--|
A|---------------------------------------------------------------------------------------|
E|---------------------------------------------------------------------------------------|


Verse:
C                      Em7
tian kong hui de xiang ku guo
          Am
li kai ni yi hou
                  Em7
bing mei you geng zi you
             F
suan suan de kong qi
    G/F           Em
xiu chu wo men de ju li
   Am             Dm
yi mu chui xin de jie ju
                   G
xiang hu xi ban wu fa ting xi

C                    Em7
chou ti fan huang de ri ji
           Am
zha gan le hui yi
                 Em7
na xiao rong shi xia ji
         F
ni wo de guo qu
    G/F              Em
bei shun shi zhen de wang ji
    Am              Dm
que yang guo hou de ai qing
                  G
cu xin de yan lei shi duo yu


Chorus/Outro:
   C                        C/B
wo zhi dao ni wo dou mei you cuo
Am                        Am/G
zhi shi wang le zen me tui hou
Dm
xin shi dan dan gei le cheng nuo
F                G
que bei shi jian pu le kong
   C                         C/B
wo zhi dao wo men dou mei you cuo
Am                         Am/G   Am/F#
zhi shi fang shou hui bi jiao hao guo
        Dm             G         C
zui mei de ai qing hui yi li dai xu

   C                        C/B
wo zhi dao ni wo dou mei you cuo
Am                        Am/G
zhi shi wang le zen me tui hou
Dm
xin shi dan dan gei le cheng nuo
F                G
que bei shi jian pu le kong
   C                         C/B
wo zhi dao wo men dou mei you cuo
Am                         Am/G   Am/F#
zhi shi fang shou hui bi jiao hao guo
        Dm             G         C
zui mei de ai qing hui yi li dai xu


C - - Am - - F - - G - - C


e|---------------------------------------------------------------------------------------------|
B|---------------------------------------------------------------------------------------------|
G|--7~-7h9-7-----7h9-7-----7h9-7-------------------/7~-7h9-7----7h9-7-------------------10-9~--|
D|-----------9---------10--------9-10--12p10-9s10------------9--------10--12p10-9s10-9---------|
A|---------------------------------------------------------------------------------------------|
E|---------------------------------------------------------------------------------------------|

End on C
Добавлено: 24.06.2012
Другие материалы по этой песне:
  • Аккорды и текст

Страница создана 16.05.2012
http://primanota.ru/jay-chou/tui-hou-chords.htm
Привет, Гость.
Предлагаем пройти революционный курс по гитаре.
Подарок от PrimaNota.Ru, забирай!