PrimaNota.ru - самый крупный в мире бесплатный архив песенных текстов, аккордов, табулатур и нот


Jay Chou - Simple Love - таба, видео

Регистрация Запомнить меня
Войти через:  Facebook Google Twitter Vk Yandex Mail.ru

Jay Chou - Simple Love - таба, видео

Печатать
Просмотров: 133
Simple Love (Jian Dai AI)
Album: Fantasy
Standard Tuning

Intro:
                    
|------------------|------------------|------------------|------------------|
|------3---3-1-0-1-|------3---3-1-0-1-|------3---3-1-0-1-|------3---3-1-0-1-|
|--------0---------|--------0---------|--------2---------|----0---0---------|    2X
|----2-------------|------------------|----2-------------|------------------|    
|--3---------------|----2-------------|--0---------------|------------------|
|------------------|--3---------------|------------------|--1---------------|



Verse:

|----------------|----------------|------------------|---------------|
|--------1-1---1-|--------1-1---1-|--------1-1---1---|--1----1-3-3-1-|          
|----0-2-----2---|----0-2-----2---|----0-2-----2---2-|-----0---------|    2x
|----------------|----------------|------------------|---------------|
|--3-------------|----------------|--0---------------|---------------|
|----------------|--3-------------|------------------|--1------------|


|------------------|-----------------|------------------|------------------|
|------1---1-1---1-|--0------1-----1-|------1---1-1---1-|--0---------------|
|----0-------------|------0------0---|----0-------------|------0--0--------|
|------------------|----0------2-----|------------------|----0-------3-2-0-|
|--0---------------|---------3-------|--0---------------|---------3--------|
|----------1-------|--3--------------|----------1-------|--3---------------|


|------------------|-----------------|--1-1-1-0------3-|--1-1-1-0---------|
|------1---1-1---1-|--0------1-----1-|----------3--1---|----------3-1-0-1-|
|----0-------------|------0------0---|-----------------|------------------|
|------------------|----0------2-----|-----------------|------------------|
|--0---------------|---------3-------|-----------------|------------------|
|----------1-------|--3--------------|--1--------------|--3---------------|



Chorus:

|----------0---0-1--3-3-3-1-0----|----------0---0-1--3-3-3-5-3-0-|------------0-0-|
|------1-3---3-----------------3-|------1-3---3------------------|--1-1---1-3-----|
|--------------------------------|-------------------------------|------0---------|
|----2---------------------------|----2--------------------------|----------------|
|--3-----------------------------|--0----------------------------|----------------|
|-------------------3------------|-------------------0-----------|--1-------------|


|-----3-----------|------------0--|--1-1-0--------|
|--1----1-1-0---0-|--1-1---1-3----|---------3-1-1-|   Chorus 2x
|-------------2---|------0--------|---------------|
|-----------------|---------------|---------------|
|--3--------------|---------------|---------------|
|-----------------|--1------------|--3------------|



Bridge:

|------------------|------------------|------------------|------------------|
|------3---3-1-0-1-|------3---3-1-0-1-|------3---3-1-0-1-|------3---3-1-0-1-|
|--------0---------|--------0---------|--------2---------|----0---0---------|    2X
|----2-------------|------------------|----2-------------|------------------|    
|--3---------------|----2-------------|--0---------------|------------------|
|------------------|--3---------------|------------------|--1---------------|



Verse:

|----------------|----------------|------------------|---------------|
|--------1-1---1-|--------1-1---1-|--------1-1---1---|--1----1-3-3-1-|          
|----0-2-----2---|----0-2-----2---|----0-2-----2---2-|-----0---------|    
|----------------|----------------|------------------|---------------|
|--3-------------|----------------|--0---------------|---------------|
|----------------|--3-------------|------------------|--1------------|


|------------------|-----------------|------------------|------------------|
|------1---1-1---1-|--0------1-----1-|------1---1-1---1-|--0---------------|
|----0-------------|------0------0---|----0-------------|------0--0--------|
|------------------|----0------2-----|------------------|----0-------3-2-0-|
|--0---------------|---------3-------|--0---------------|---------3--------|
|----------1-------|--3--------------|----------1-------|--3---------------|


|------------------|-----------------|--1-1-1-0------3-|--1-1-1-0---------|
|------1---1-1---1-|--0------1-----1-|----------3--1---|----------3-1-0-1-|
|----0-------------|------0------0---|-----------------|------------------|
|------------------|----0------2-----|-----------------|------------------|
|--0---------------|---------3-------|-----------------|------------------|
|----------1-------|--3--------------|--1--------------|--3---------------|



Chorus:

|----------0---0-1--3-3-3-1-0----|----------0---0-1--3-3-3-5-3-0-|------------0-0-|
|------1-3---3-----------------3-|------1-3---3------------------|--1-1---1-3-----|
|--------------------------------|-------------------------------|------0---------|
|----2---------------------------|----2--------------------------|----------------|
|--3-----------------------------|--0----------------------------|----------------|
|-------------------3------------|-------------------0-----------|--1-------------|


|-----3-----------|------------0--|--1-1-0--------|
|--1----1-1-0---0-|--1-1---1-3----|---------3-1-1-| Chorus 2x
|-------------2---|------0--------|---------------|
|-----------------|---------------|---------------|
|--3--------------|---------------|---------------|
|-----------------|--1------------|--3------------|






Bridge:

|------------------|------------------|------------------|------------------|
|------3---3-1-0-1-|------3---3-1-0-1-|------3---3-1-0-1-|------3---3-1-0-1-|
|--------0---------|--------0---------|--------2---------|----0---0---------|    2X
|----2-------------|------------------|----2-------------|------------------|    
|--3---------------|----2-------------|--0---------------|------------------|
|------------------|--3---------------|------------------|--1---------------|






Chorus:

|----------0---0-1--3-3-3-1-0----|----------0---0-1--3-3-3-5-3-0-|------------0-0-|
|------1-3---3-----------------3-|------1-3---3------------------|--1-1---1-3-----|
|--------------------------------|-------------------------------|------0---------|
|----2---------------------------|----2--------------------------|----------------|
|--3-----------------------------|--0----------------------------|----------------|
|-------------------3------------|-------------------0-----------|--1-------------|


|-----3-----------|------------0--|--1-1-0--------|
|--1----1-1-0---0-|--1-1---1-3----|---------3-1-1-|   play chorus 2 times
|-------------2---|------0--------|---------------|
|-----------------|---------------|---------------|
|--3--------------|---------------|---------------|
|-----------------|--1------------|--3------------|



Outro:

|--0-----1--------|--3-----1--------|
|------1------1---|------1------1---|
|----0------0---0-|----0------0---0-|  2X  
|--------0--------|--2-----0--------|
|--3--------------|-----------------|
|-----------------|-----------------|


|--0----------|
|--1----------|
|--0----------|
|--2----------|
|--3----------|
|--0----------|
Добавлено: 20.03.2012
Другие материалы по этой песне:
  • Аккорды и текст

Страница создана 20.03.2012
http://primanota.ru/jay-chou/simple-love-chords.htm
Привет, Гость.
Предлагаем пройти революционный курс по гитаре.
Подарок от PrimaNota.Ru, забирай!