PrimaNota.ru - самый крупный в мире бесплатный архив песенных текстов, аккордов, табулатур и нот


Jay Chou - Shuo Hao De Xing Fu Nepromised Happiness - таба, видео

Регистрация Запомнить меня
Войти через:  Facebook Google Twitter Vk Yandex Mail.ru

Jay Chou - Shuo Hao De Xing Fu Nepromised Happiness - таба, видео

Печатать
Просмотров: 133
-------------------------------------------------------------------------------
			     Jay Chou - Promised Happiness 
                               (Shuo Hao De Xing Fu ne)
-------------------------------------------------------------------------------
Tabbed by: JAv Lee
my msn mesenja : javleepisces@hotmail.com

Tuning: Standard Tuning

This song is a really special song 
I tabbed this out myself, so if i make any mistake, please FORGIVE ME YACH ^0^


Intro~~~

e|--3~-------------------------0h1--------0----------------------------------|
B|-------------------------1--------------------------1------------3---------|
G|------0--0--0--0--0--0--------------------------2-------2---------------0--|
D|----------------------------------------3----------------------------0-----|
A|---------------------------------------------------------------------------|
E|-----------------------------------------------------------------3---------|

e|------------------------------------------------------------------------1--|
B|--0---1-----3--------------------------0--------1--------------0---1----1--|
G|---------------------0--------0----2-----------------------2----------2----|
D|-----------------2--------------------------2----------------------0-------|
A|---------------------------------------0-----------------------------------|
E|------------0--------------------------------------------------------------|

~~~ Intro Finish
e|--------------3------------------------------------------------------------|
B|--0--1--3-----3-----------0------2-----------------------------------------|
G|-----------0-------0--2---------2------------------------------------------|
D|-------------------------------2-------------------------------------------|
A|--------------------------0------------------------------------------------|
E|--------0------------------------------------------------------------------|


e|----------------------------0----------------------------------------------|
B|-----0--1--0-----0----------0----------------------------------------------|
G|--2-----------2-----0------0--------2--0-----0---------0-------------------|
D|--------------------------2---------------3-----2-----2----0---------------|
A|--------0----------------2---------------------------3--3-2----------------|
E|------------------------0-----------1--------------------------------------|


e|------------------------------------0-0-0------0---------------------------|
B|-----0--1--0-----0----------3-3~----1-------3------3------3----------------|
G|--2-----------2-----0---------------2-------------------0------------------|
D|------------------------------------3-----------------0--------------------|
A|--------0------------------------------------------2-----------------------|
E|------------------------0--------------------------------------------------|


e|----------------------------0----------------------------------------------|
B|-----0--1--0-----0----------0----------------1-----------------------------|
G|--2-----------2-----0------0--------2--0---------------0-------------------|
D|--------------------------2---------------3-----2-----2----0---------------|
A|--------0----------------2---------------------------3--3-2----------------|
E|------------------------0-----------1--------------------------------------|


e|------------------------------------0-0-0--1--0-----------------------3~---|
B|-----0--1--0-----0----------3-3~----1------------3----------3-----3--------|
G|--2-----------2-----0---------------2---------------------0---0-----0------|
D|------------------------------------3-------------------0-------0----------|
A|--------0------------------------------------------------------------------|
E|------------------------0-----------------------------3--------------------|


e|---------------------------------------------------------------------------|
B|--------0--1---1---1--1---1--1---0--1--3--3---3--3--3---3--3-------2-------|
G|--0--2-----------2----------------------------0------------------1---1-----|
D|---------------3------------------------------2----------------------------|
A|---------------------------------------------------------------0-----------|
E|---------------------------------3-----------------------------------------|


e|--------------------------------------------------0--0--0--0--0--1--0------|
B|--1--1------1---1-1---1-1----0----3-3~---1-1--3---1--------------------3---|
G|--------0-----0-----------0----0------------------2------------------------|
D|------------3-------------------------------------3------------------------|
A|---------------------------------------------------------------------------|
E|-----------------------------0---------------------------------------------|


e|--------------------3~-----------------------------------------------------|
B|--------3------3-----------------------------------------------------------|
G|------0---0------0---------------------------------------------------------|
D|----0-------0--------------------------------------------------------------|
A|---------------------------------------------------------------------------|
E|--3------------------------------------------------------------------------|


e|--------0--0-0-0-0---0-0-0-----0h1p0-------------------------------0-------|
B|--1--3-----1--------------------------3-----0-1-3--3-3-3--3-3-3------3-1---|
G|-----------2---------------------------------------------------------------|
D|-----------3---------------------------------------------------------------|
A|-----------------------------------------------------------------0---------|
E|-----------------------------3--------------------0------------------------|


e|---------3--1-1-0-0----------------------------1-0-0-----------0-1-0-3~----|
B|------1-------------3-3-1---3-3-1-3---1-3-1----------3-3-1-1-3----------1--|
G|--2-2----------------------------------------------------------------------|
D|---------3-----------------------------------------------------------------|
A|-----------------------------------------------3---------------------------|
E|----------------------------3----------------------------------3-----------|


e|--0-0-0-0---0-0-0-----0h1p0------------3--3-3-3--3-3-3----0----------------|
B|--1--------------------------3-----0-1----------------------3-1------------|
G|--2------------------------------------------------------------------------|
D|--3------------------------------------------------------------------------|
A|-------------------------------------------------------0-------------------|
E|-------------------3--------------------0----------------------------------|


e|---------3--1-1-0-0---------0-----0----------------------0-----------------|
B|------1-------------3-3-1-----3-------1-3-1-------1-3---1------------------|
G|--2-2---------------------------0---------------0------0-------------------|
D|---------3------------------------------------0----------------------------|
A|----------------------------------------3----------------------------------|
E|----------------------------3----------------------------------------------|

									End.


I spend 1 hour tabbing it on ultimate-guitar so please appreciate it 



| /  slide up
| \  slide down
| h  hammer-on
| p  pull-off
| ~  vibrato
| +  harmonic
| x  Mute note
===============================================================================
Добавлено: 23.04.2012
Другие материалы по этой песне:
  • Аккорды и текст

Страница создана 23.04.2012
http://primanota.ru/jay-chou/shuo-hao-de-xing-fu-nepromised-happiness-chords.htm
Привет, Гость.
Предлагаем пройти революционный курс по гитаре.
Подарок от PrimaNota.Ru, забирай!