PrimaNota.ru - самый крупный в мире бесплатный архив песенных текстов, аккордов, табулатур и нот


Jay Chou - Huo Yuan Chia - текст песни, таба, видео

Регистрация Запомнить меня
Войти через:  Facebook Google Twitter Vk Yandex Mail.ru

Jay Chou - Huo Yuan Chia - текст песни, таба, видео

Печатать
Просмотров: 191
---------------------------------------------------------------------------
             Jay Chow - Huo Yuan Chia(fearless soundtrack)
----------------------------------------------------------------------------
Tabbed by:Johnny teo chee huat.. RaveraHill
Email:teo_huat@yahoo.com


INTRODUCTION:
This is my second contribution to Ultimate Guitar,im not a big fan of Jay Chow.However
i like this song and couldn't find any tabs for it. So i decide to tab it out myself.
Hope u guys enjoy it... please comment about my tab and rate it. thanks!
I also include the lyric and translate it.. check it out at the bottom.




Tuning:E,A,D,G,B,E

INTRO-GUITAR 1
e|--------2-1-----4--------6-4-2----------3-2-1----------1-----------------|
B|4------------------------------------------------------------------------|
G|-3-3---3---------3-3----3------1-1-----1------3-3-----3-3----------------|
D|-------------------------------------------------------------------------|
A|-------------------------------------------------------------------------|
E|-------------------------------------------------------------------------|

INTRO-GUITAR 2(LEAD)
e|-11S13--11---14S16~----19P17---17P14~---13~------------------------------|
B|-------------------------------------------------------------------------|
G|-------------------------------------------------------------------------|
D|-------------------------------------------------------------------------|
A|-------------------------------------------------------------------------|
E|-------------------------------------------------------------------------|

e|-11H13(HAMMER ON 13 AS MANY TIME AS NEEDED)------------------------------|
B|--------------------------------------------12S14--16--9S11--9-11--------|
G|-------------------------------------------------------------------------|
D|-------------------------------------------------------------------------|
A|-------------------------------------------------------------------------|
E|-------------------------------------------------------------------------|





VERSE-GUITAR 1(RYTHM)
e|-------------------------------------------------------------------------|
B|-------------------------------------------------------------------------|
G|-8-----------------------------------------------------------------------|
D|-8-------9-------6-------8-----------------------------------------------|
A|-6-------9-------6-------8-----------------------------------------------|
E|---------7-------4-------6-----------------------------------------------|
  strum each chord - listen for the rythm for strumming pattern,it aint hard

VERSE-GUITAR 2(LEAD)
e|-------------------------------------------------------------------------|
B|------------------------7---------------------------------7--------------|
G|-8--8-8-6---6-6-8---6-8---6-8------8--8-8-6---6-6-8---6-8---6-8----------|
D|-------------------------------------------------------------------------|
A|-------------------------------------------------------------------------|
E|-------------------------------------------------------------------------|
   
e|-------------------------------------------------------------------------|
B|------------------------7------------------------------------------------|
G|-8--8-8-6---6-6-8---6-8---6---------------7---7-8------------------------|
D|----------------------------8-----8-8-6-8---8----------------------------|
A|-------------------------------------------------------------------------|
E|-------------------------------------------------------------------------|





CHORUS-GUITAR 1(RYTHM)
e|-------------------------------------------------------------------------|
B|-------------------------------------------------------------------------|
G|-8-----------------------------------------------------------------------|
D|-8-------9-------6-------8-----------------------------------------------|
A|-6-------9-------6-------8-----------------------------------------------|
E|---------7-------4-------6-----------------------------------------------|

CHORUS-GUITAR 2(LEAD)
e|-11S13-14----13---------------------------6-9----9----11-----------------|
B|----------11----14S16-----------------7H9-----11---11--------------------|
G|-------------------------------------------------------------------------|
D|-------------------------------------------------------------------------|
A|-------------------------------------------------------------------------|
E|-------------------------------------------------------------------------|




PRE-VERSE- GUITAR 1 & GUITAR 2
e|-------------------------------------------------------------------------|
B|-------------------------------------------------------------------------|
G|-6-8-6-8-----10-6--13--10-6----------------------------------------------|
D|-6-8-6-8-----10-6--13--10-6----------------------------------------------|
A|-4-6-4-6-----8--4--11--8--4----------------------------------------------|
E|-------------------------------------------------------------------------|
  PLAY THIS 4 TIME





(VERSE)





(CHORUS)





BRIDGE-GUITAR 2(LEAD)
e|-6-4-----(PLAY MANY TIME AS NEEDED)>>THEN PLAY AL DOUBLE>>-6-6-4-4-------|
B|-----7-4----------------------------------------------------------7-7-4-4|
G|-------------------------------------------------------------------------|
D|-------------------------------------------------------------------------|
A|-------------------------------------------------------------------------|
E|-------------------------------------------------------------------------|




BRIDGE2-GUITAR 1
e|-------------------------------------------------------------------------|
B|-------------------------------------------------------------------------|
G|-6-----------------------------------------------------------------------|
D|-6-------9--------6------------------------------------------------------|
A|-4-------9--------6-------7----------------------------------------------|
E|---------7--------4-------6----------------------------------------------|
  listen to the song for strumming pattern

BRIDGE2-GUITAR 2
e|--11~--------------------------------------------------------------------|
B|-------7S9~---11-7~----9-7-6~--------2-4~---7-9~--11-9-7~--9-7-6~--------|
G|-------------------------------------------------------------------------|
D|-------------------------------------------------------------------------|
A|-------------------------------------------------------------------------|
E|-------------------------------------------------------------------------|




(CHORUS X4)




OUTRO-GUITAR 1
e|-------------------------------------------------------------------------|
B|-------------------------------------------------------------------------|
G|-------------------------------------------------------------------------|
D|-------------------------------------------------------------------------|
A|--6~---------------------------------------------------------------------|
E|--------7~-----4~------6~------------------------------------------------|

OUTRO-GUITAR 2
e|---------------------------------------------------6-4-------------------|
B|---------11-------------11-9----11-9-7-----------4----------4-6---7-6-4--|
G|----8-10----11-----8-10----------------8-------4----------6-------------6|
D|-8---------------8---------------------------6----------8----------------|
A|-------------------------------------------------------------------------|
E|-------------------------------------------------------------------------|



ANY COMMENT AND QUESTION,U MAY EMAIL ME(TEO_HUAT@YAHOO.COM)





| /  slide up
| \  slide down
| h  hammer-on
| p  pull-off
| ~  vibrato
| +  harmonic
| x  Mute note
============================================================================
The lyric

?
he
?????
ming you ji hui he
????
lei tai deng zhe
???
sheng si zhuang
????
ying liao shen me
???
leng xiao zhe
????
tian xia shui de
?????
di yi you ru he
???
zhi gan ge
?????
wo bei shang wu de

??
wo de
????
quan jiao liao de
???
que nai he
??????
tu zeng xu ming yi ge
????
jiang hu nan ce
????
shui shi qiang zhe
?????????
shui zheng yi tong wu lin de zi ge

????????
xiao cheng li sui yue liu guo qu
?????
qing che de yong qi
??????
xi di guo de hui yi
????
wo ji de ni
??????
jiao ao de huo xia qu

????
huo huo huo huo
????
huo huo huo huo
??????????
huo jia quan de tao lu zhao shi ling huo
????
wo wo wo wo
????
wo wo wo wo
??????????
huo zhe sheng ming jiu gai wan zheng du guo
????
wo wo wo wo
????
wo wo wo wo
??????????
guo cuo ruan ruo cong lai bu shu yu wo
????
huo huo huo huo
????
huo huo huo huo
??????????
wo men jing wu chu shou wu ren neng duo

Huo Yuan Chia
Ho
Life has a few rounds
The platform for the martial arts contest is waiting

The death consent
What have I won?
Smiling coldly
Who owns the world?
So what if you are number one
Stop the war
My generation still has martial virtues

My
Punches and kicks are excellent
Yet how come
I receive an undeserved reputation
Jiang Hu is hard to predict
Who is the strongest?
Who fights for the right to rule over Wu Lin?

In the small town the years flow past
The clear courage
The memories that have been rinsed
I remember you
Living on proudly

Huo Huo Huo Huo Huo Huo Huo Huo
The forms and moves of the Huo family fist are flexible
I I I I I I I
I'm living so I should live through and complete it
I I I I I I I
Mistakes and weaknesses never belong to me
Huo Huo Huo Huo Huo Huo Huo Huo
No one can avoid if we use our refined moves
Добавлено: 29.06.2012
Другие материалы по этой песне:
  • Аккорды и текст

Страница создана 29.06.2012
http://primanota.ru/jay-chou/huo-yuan-chia-chords.htm
Привет, Гость.
Предлагаем пройти революционный курс по гитаре.
Подарок от PrimaNota.Ru, забирай!