PrimaNota.ru - самый крупный в мире бесплатный архив песенных текстов, аккордов, табулатур и нот


Jay Chou - Fresh Water Seaside - таба, видео

Регистрация Запомнить меня
Войти через:  Facebook Google Twitter Vk Yandex Mail.ru

Jay Chou - Fresh Water Seaside - таба, видео

Печатать
Просмотров: 187
Уроки эстрадного вокала в Санкт-Петербурге
+++++++++++++++++++++++++++++++++++++++++++++++++++++++++++++++++++++++++++++++

                               Fresh Water Seaside
                               (Dan Shui Hai Bian)
                          Jay Chou's  Secret soundtrack

                           Rearranged by  William Heng
                          Dedicated to  Jay Chou's fans

+++++++++++++++++++++++++++++++++++++++++++++++++++++++++++++++++++++++++++++++

   1 . . . 2 . . . 3 . . . 4 . . .   1 . . . 2 . . . 3 . . . 4 . . .
e|-----------------------------0---|-1---0-0-------------------------|
B|-------------------------1-------|-1---------------------------0---|
G|---------------------0-----------|-0-----------------------2-------|
D|---------------------------------|---------------------2-----------|
A|---------------------------------|-3---------------2---------------|
E|---------------------------------|---------------------------------|

   1 . . . 2 . . . 3 . . . 4 . . .   1 . . . 2 . . . 3 . . . 4 . . .
e|-----------------------------0---|-1-----------5---7---------------|
B|-3---1-1-----------------1-------|-1---1-1-------------8---8-------|
G|-2-------------------0-----------|-----------------7-----------7---|
D|-2-------------------------------|-----------------5---------------|
A|-0-------------------------------|---------------------------------|
E|-----------------3---------------|-1-------------------------------|


   1 . . . 2 . . . 3 . . . 4 . . .   1 . . . 2 . . . 3 . . . 4 . . .
e|-----------------------------0---|-1---0-0-----------------5---7---|
B|-6---5-5-----------------1-------|-1-------------------5-----------|
G|-5-------------------0-----------|-0---------------4---------------|
D|-----------------3---------------|---------------------------------|
A|-3---------------3---------------|-3-------------------------------|
E|-----------------3---------------|---------------------------------|


    1 . . . 2 . . .  3 . . . 4 .  . .    1 .  .  . 2 . . . 3 . . .  4 . . .
e|-10---8---7---8---10-------8---10---|-13---12-12---------8-------10-------|
B|-10----------------9----------------|-13-------------8---6--------8-------|
G|--9---------------------------------|-13-----------------0--------0-------|
D|--7---------------------------------|-------------------------------------|
A|------------------------------------|-------------------------------------|
E|------------------------------------|-------------------------------------|

    1 . . . 2 . . . 3 . . . 4 . . .   1 . . . 2 . . . 3 . . . 4 . . .
e|--8---------------------------0---|-1---0-0-------------------------|
B|--------------------------1-------|-1---------------------------0---|
G|----------------------0-----------|-0-----------------------2-------|
D|-10---------------3---------------|---------------------2-----------|
A|------------------3---------------|-3---------------2---------------|
E|------------------3---------------|---------------------------------|

   1 . . . 2 . . . 3 . . . 4 . . .   1 . . . 2 . . . 3 . . . 4 . . .
e|-----------------------------0---|-1-----------5---7---------------|
B|-3---1-1-----------------1-------|-1---1-1-------------8---8-------|
G|-2-------------------0-----------|-----------------7-----------7---|
D|-2-------------------------------|-----------------5---------------|
A|-0-------------------------------|---------------------------------|
E|-----------------3---------------|-1-------------------------------|


   1 . . . 2 . . . 3 . . . 4 . . .   1 . . . 2 . . . 3 . . . 4 . . .
e|-----------------------------0---|-1---0-0-----------------5---7---|
B|-6---5-5-----------------1-------|-1-------------------5-----------|
G|-5-------------------0-----------|-0---------------4---------------|
D|-----------------3---------------|---------------------------------|
A|-3---------------3---------------|-3-------------------------------|
E|-----------------3---------------|---------------------------------|


    1 . . . 2 . . .  3 . . . 4 .  . .    1 .  .  . 2 . . . 3 . . .  4 . . .
e|-10---8---7---8---10-------8---10---|-13---12-12---------8-------10-------|
B|-10----------------9----------------|-13-------------8---6--------8-------|
G|--9---------------------------------|-13-----------------0--------0-------|
D|--7---------------------------------|-------------------------------------|
A|------------------------------------|-------------------------------------|
E|------------------------------------|-------------------------------------|


    1 . . . 2 . . . 3 . . . 4 . . . 
e|--8-------------------------------||
B|--8-------------------------------||
G|--9-------------------------------||
D|-10-------------------------------||
A|-10-------------------------------||
E|--8-------------------------------||

#Original soundtrack is played by 2 guitars, thus the bass is simplified.
#If you have problem to play this tab, please listen to the soundtrack again
 or you can just ignore the bass and play the melody part.
#Bass are normally play every half note (duration signature of 1 & 3).

-------------------------------------------------------------------------------

2 guitars version

1st Guitar

   1 . . . 2 . . . 3 . . . 4 . . .   1 . . . 2 . . . 3 . . . 4 . . .
e|-----------------------------0---|-1---0-0-------------------------|
B|-------------------------1-------|-1---------------------------0---|
G|---------------------0-----------|-0-----------------------2-------|
D|---------------------------------|---------------------2-----------|
A|---------------------------------|---------------------------------|
E|---------------------------------|---------------------------------|

   1 . . . 2 . . . 3 . . . 4 . . .   1 . . . 2 . . . 3 . . . 4 . . .
e|-----------------------------0---|-1-----------5---7---------------|
B|-3---1-1-----------------1-------|-1---1-1-------------8---8-------|
G|-2-------------------0-----------|-----------------7-----------7---|
D|-2-------------------------------|---------------------------------|
A|---------------------------------|---------------------------------|
E|---------------------------------|---------------------------------|


   1 . . . 2 . . . 3 . . . 4 . . .   1 . . . 2 . . . 3 . . . 4 . . .
e|-----------------------------0---|-1---0-0-----------------5---7---|
B|-6---5-5-----------------1-------|-1-------------------5-----------|
G|-5-------------------0-----------|-0-------------------------------|
D|---------------------------------|---------------------------------|
A|---------------------------------|---------------------------------|
E|---------------------------------|---------------------------------|


    1 . . . 2 . . .  3 . . . 4 .  . .    1 .  .  . 2 . . . 3 . . .  4 . . .
e|-10---8---7---8---10-------8---10---|-13---12-12---------8-------10-------|
B|-10----------------9----------------|-13-------------8---6--------8-------|
G|------------------------------------|-------------------------------------|
D|------------------------------------|-------------------------------------|
A|------------------------------------|-------------------------------------|
E|------------------------------------|-------------------------------------|

   1 . . . 2 . . . 3 . . . 4 . . .   1 . . . 2 . . . 3 . . . 4 . . .
e|-8---------------------------0---|-1---0-0-------------------------|
B|-------------------------1-------|-1---------------------------0---|
G|---------------------0-----------|-0-----------------------2-------|
D|---------------------------------|---------------------2-----------|
A|---------------------------------|---------------------------------|
E|---------------------------------|---------------------------------|

   1 . . . 2 . . . 3 . . . 4 . . .   1 . . . 2 . . . 3 . . . 4 . . .
e|-----------------------------0---|-1-----------5---7---------------|
B|-3---1-1-----------------1-------|-1---1-1-------------8---8-------|
G|-2-------------------0-----------|-----------------7-----------7---|
D|-2-------------------------------|---------------------------------|
A|---------------------------------|---------------------------------|
E|---------------------------------|---------------------------------|


   1 . . . 2 . . . 3 . . . 4 . . .   1 . . . 2 . . . 3 . . . 4 . . .
e|-----------------------------0---|-1---0-0-----------------5---7---|
B|-6---5-5-----------------1-------|-1-------------------5-----------|
G|-5-------------------0-----------|-0-------------------------------|
D|---------------------------------|---------------------------------|
A|---------------------------------|---------------------------------|
E|---------------------------------|---------------------------------|


    1 . . . 2 . . .  3 . . . 4 .  . .    1 .  .  . 2 . . . 3 . . .  4 . . .
e|-10---8---7---8---10-------8---10---|-13---12-12---------8-------10-------|
B|-10----------------9----------------|-13-------------8---6--------8-------|
G|------------------------------------|-------------------------------------|
D|------------------------------------|-------------------------------------|
A|------------------------------------|-------------------------------------|
E|------------------------------------|-------------------------------------|


    1 . . . 2 . . . 3 . . . 4 . . . 
e|--8-------------------------------||
B|----------------------------------||
G|----------------------------------||
D|-10-------------------------------||
A|----------------------------------||
E|----------------------------------||

2nd Guitar

   1 . . . 2 . . . 3 . . . 4 . . .   1 . . . 2 . . . 3 . . . 4 . . .
e|---------------------------------|---------------------------------|
B|---------------------------------|---------1-----------------------|
G|---------------------------------|-----0---------------------------|
D|---------------------------------|---------------------------------|
A|---------------------------------|-3---------------2---------------|
E|---------------------------------|---------------------------------|

   1 . . . 2 . . . 3 . . . 4 . . .   1 . . . 2 . . . 3 . . . 4 . . .
e|---------------------------------|---------------------------------|
B|-------------1---------------1---|---------------------------------|
G|---------2---------------0-------|---------2---------------4-------|
D|-----2---------------2-----------|-----3---------------0-----------|
A|-0-------------------------------|---------------------------------|
E|-----------------3---------------|-1---------------3---------------|

   1 . . . 2 . . . 3 . . . 4 . . .   1 . . . 2 . . . 3 . . . 4 . . .
e|-----------------1---------------|---------------------------------|
B|---------1-----------------------|---------1-----------------------|
G|-----0---------------------------|-----0---------------4---1-------|
D|-----------------0---------------|---------------------------------|
A|-3---------------3---------------|-3---------------2---------------|
E|-----------------3---------------|---------------------------------|

   1 . . . 2 . . . 3 . . . 4 . . .   1 . . . 2 . . . 3 . . . 4 . . .
e|---------------------------------|---------------------------------|
B|---------1-----------------------|---------1-----------------------|
G|-------------------------1-------|-----0---------------------------|
D|-----2-------2-------2-----------|---------------------------------|
A|-0-------------------------------|---------------------------------|
E|-----------------4---------------|-3---------------3-------3-------|

   1 . . . 2 . . . 3 . . . 4 . . .   1 . . . 2 . . . 3 . . . 4 . . .
e|---------0-------1---------------|---------------------------------|
B|---------------------------------|---------1-----------------------|
G|-----0-------0-------------------|-----0---------------------------|
D|-----------------0---------------|---------------------------------|
A|-3---------------3---------------|-3---------------2---------------|
E|-----------------3---------------|---------------------------------|

   1 . . . 2 . . . 3 . . . 4 . . .   1 . . . 2 . . . 3 . . . 4 . . .
e|---------------------------------|---------------------------------|
B|-------------1---------------1---|---------------------------------|
G|---------2---------------0-------|---------2---------------4-------|
D|-----2---------------2-----------|-----3---------------0-----------|
A|-0-------------------------------|---------------------------------|
E|-----------------3---------------|-1---------------3---------------|

   1 . . . 2 . . . 3 . . . 4 . . .   1 . . . 2 . . . 3 . . . 4 . . .
e|-----------------1-------3-------|---------------------------------|
B|---------1-----------------------|---------1-----------------------|
G|-----0---------------------------|-----0---------------4---1-------|
D|-----------------0-------0-------|---------------------------------|
A|-3---------------3-------3-------|-3---------------2---------------|
E|-----------------3---------------|---------------------------------|

   1 . . . 2 . . . 3 . . . 4 . . .   1 . . . 2 . . . 3 . . . 4 . . .
e|---------------------------------|-------------0-------------------|
B|---------1-----------------------|---------1-----------------------|
G|-------------------------1---4---|-----0---------------------------|
D|-----2-------2-------2-----------|---------------------------------|
A|-0-------------------------------|---------------------------------|
E|-----------------4---------------|-3---------------3-------3-------|

   1 . . . 2 . . . 3 . . . 4 . . .   
e|---------------------------------||
B|---------------------------------||
G|-5-------------------------------||
D|-5-------------------------------||
A|-3-------------------------------||
E|---------------------------------||

-------------------------------------------------------------------------------

Simplified bass summary:
Single bass notes (play the bass every half note starting from 2nd bar)
C, B, A, G, F, G, C, G, C, B, A, G#, G, G, C, G,
C, B, A, G, F, G, C, G, C, B, A, G#, G, G, C, G.
Добавлено: 05.04.2012
Другие материалы по этой песне:
  • Аккорды и текст

Страница создана 05.04.2012
http://primanota.ru/jay-chou/fresh-water-seaside-chords.htm
Привет, Гость.
Предлагаем пройти революционный курс по гитаре.
Подарок от PrimaNota.Ru, забирай!