PrimaNota.ru - самый крупный в мире бесплатный архив песенных текстов, аккордов, табулатур и нот


Jay Chou - Dandelions Promise Pu Gong Ying De Yue Ding - таба, видео

Регистрация Запомнить меня
Войти через:  Facebook Google Twitter Vk Yandex Mail.ru

Jay Chou - Dandelions Promise Pu Gong Ying De Yue Ding - таба, видео

Печатать
Просмотров: 140
05.Dandelion's Promise (Pu Gong Ying De Yue Ding)
Album: Jay Chou On The Run
Standard Tuning


Intro:

|--------0-|--0-----1-|---------|--------3---|-----------|--0-1-3---|------------0---0--------|
|------1---|------1---|--3---3--|--3-------0-|--1------1-|--------1-|--1---3-----------1------|
|----0-----|----2-----|----0---0|------0-----|-------2---|----------|----0---0-----0----------|
|--2-------|--3-------|---------|------------|-----2-----|--3-------|-------------------------|
|----------|----------|---------|--2---------|--0--------|----------|------------3------------|
|----------|----------|--3------|------------|-----------|----------|--3----------------------|



|--------0-|--0-----1-|---------|--------3---|-----------|--0-1-3---|-----------------------|
|------1---|------1---|--3---3--|--3-------0-|--1------1-|--------1-|--1---3-----3---3----1-|
|----0-----|----2-----|----0---0|------0-----|-------2---|----------|----0---0-----0---0----|
|--2-------|--3-------|---------|------------|-----2-----|--3-------|-----------------------|
|----------|----------|---------|--2---------|--0--------|----------|------------3----------|
|----------|----------|--3------|------------|-----------|----------|--3--------------------|



|----------------|------------------|----------------|--------0-0---------0-|
|----------------|------0-1---1-1-1-|--1-0-3---------|--3---1---------1-----|
|------0---0-0-0-|----2-------------|--------2---0-0-|--------------0---0---|
|--2-3-----------|------------------|----------------|----------------------|
|--------3-------|--2-------0-------|----------------|------------3---------|
|----------------|------------------|--3-------1-----|----3-----------------|



|-------0---0-1------0-----------------------------------0-------------|
|--1-3-------------3----1----------1-0-1-3----1-1------1---3---------3-|
|-----------------------------2----2--------------2--------------0-----|
|---------------------------2---2--2---------------------------0---0---|
|---------2---------------0--------0-----------------------------------|
|----------------0-------------------------1---------1-------3---------|



|----------------|---------------------|----------------|--------0-0----------|
|----------------|------0---3---1-1-1--|--1-0-3---------|--3---1---------1----|
|------0---0-0-0-|----2---0------------|--0-----2---0-0-|------0-------0---0--|
|--2-3-----------|---------------------|--0-------------|------0--------------|
|--------3-------|--2--------0---------|--2-------------|------------3--------|
|----------------|---------------------|--3-------1-----|----3----------------|



|-------0-0--0-1------0-----------------------------------0------------|
|--1-3--------------3----1----------1-0-1-3----1-1------1---3-----1----|
|--0---------------------------2----2--------------2--------------0----|
|--2-------------------------2---2--2---------------------------0---0--|
|--3-------2---------------0--------0----------------------------------|
|-----------------0-------------------------1---------1-------3--------|



|--------0-|--0-----1-|---------|--------3---|-----------|--0-1-3---|------------0---0--------|
|------1---|------1---|--3---3--|--3-------0-|--1------1-|--------1-|--1---3-----------1------|
|----0-----|----2-----|----0---0|------0-----|-------2---|----------|----0---0-----0----------|
|--2-------|--3-------|---------|------------|-----2-----|--3-------|-------------------------|
|----------|----------|---------|--2---------|--0--------|----------|------------3------------|
|----------|----------|--3------|------------|-----------|----------|--3----------------------|



|--------0-|--0-----1-|---------|--------3---|-----------|--0-1-3---|-----------------------|
|------1---|------1---|--3---3--|--3-------0-|--1------1-|--------1-|--1---3-----3---3----1-|
|----0-----|----2-----|----0---0|------0-----|-------2---|----------|----0---0-----0---0----|
|----------|--3-------|---------|------------|-----2-----|--3-------|-----------------------|
|--1-------|----------|---------|--2---------|--0--------|----------|------------3----------|
|----------|----------|--3------|------------|-----------|----------|--3--------------------|
Добавлено: 08.04.2012
Другие материалы по этой песне:
  • Аккорды и текст

Страница создана 08.04.2012
http://primanota.ru/jay-chou/dandelions-promise-pu-gong-ying-de-yue-ding-chords.htm
Привет, Гость.
Предлагаем пройти революционный курс по гитаре.
Подарок от PrimaNota.Ru, забирай!