PrimaNota.ru - самый крупный в мире бесплатный архив песенных текстов, аккордов, табулатур и нот


Jay Chou - Cai Hon - таба, видео

Регистрация Запомнить меня
Войти через:  Facebook Google Twitter Vk Yandex Mail.ru

Jay Chou - Cai Hon - таба, видео

Печатать
Просмотров: 122
intro:

|--0--------|--1--------|--3--------|--1--------|--0--------|--1--------|---------|
|-------1---|-------1---|-------1---|-------1---|-------1---|-------1---|--3--1-0-|
|-----0---0-|-----0---0-|-----0---0-|-----0---0-|-----0---0-|-----0---0-|-----0-0-|
|-----------|--0--------|--2--------|--0--------|-----------|--0--------|---------|
|--3--------|-----------|-----------|-----------|--3--------|-----------|---------|
|-----------|-----------|-----------|-----------|-----------|-----------|--3------|


Verse:

|--0--0-0-1-3-5-|--3--8--|--------0--0-0-|----1-4-7---5-----|
|---------------|--------|--1-1-3--------|--3---------------|
|---------------|-----0--|---------------|------------------|
|---------0-----|--2-----|---------------|------------------|
|--3------------|--------|--------3------|--2-----0---------|
|---------------|--------|---------------|----------------3-|



|---------|----------------|---------|--0-0-0-0-0----------------|
|---------|----0-1-3-------|--1--1-3-|------------3-1-3----3-----|
|--2--2-2-|--2---------0---|---------|-------------------0---0---|
|---------|--------------0-|---------|-------------------------0-|
|---------|----------------|--0------|---------------------------|
|--1------|--3-------0-----|---------|--1-------------3----------|


|--0--0-0-1-3-5-|--3--8--|--------0--0-0-|--0---------------|
|---------------|--------|--1-1-3--------|----3-0-3---1-----|
|---------------|-----0--|---------------|------------------|
|---------0-----|--2-----|---------------|------------------|
|--3------------|--------|--------3------|--2-----0---------|
|---------------|--------|---------------|----------------3-|


|---------|----------------|----------|--0-------0-1--0----|
|---------|----0-1-3-------|--1-1-1-3-|-----------------3--|
|--2--2-2-|--2---------0---|----------|----0-0-0-----------|
|---------|--------------0-|----------|--------------------|
|---------|----------------|--0-------|--------------------|
|--1------|--3-------0-----|----------|--1------------3----|


Bridge:

|----1-0---------|------------------|----------|----------|-------------------|
|--------3-1-1-0-|----0-1-3-----3---|------1-0-|----------|------------------1|
|--0-------------|--2---------0---0-|----0-----|--2-0-0---|----------------0--|
|----------------|------------------|----------|--------3-|--2-0---0-2---2----|
|----------------|------------------|--0-------|----------|------3---3-3------|
|--------1-------|--3-------0-------|----------|--1-------|--3----------------|

|----------|------------|--------------------0-1----------3|
|----------|------------|--1--1-0-1-3--3-3-1-----3---------|
|--0-0-1-2-|--2-1-2-4---|-------------------------------0--|
|----------|----------2-|-----------0-----------------0----|
|--------2-|------------|--0------------------------2------|
|----------|----0-------|------------------------3---------|

Chorus:

|--------0-----0-|--1-0-----|----------0-|--------3------3-|--1-0---0---0-------|
|------1---------|------3-0-|--1-----1---|--1-0-1----------|------3-----------1-|
|--0-0-------0---|----------|------2-----|-----------------|----------------0---|
|----------2-----|----------|----2-------|-------------3---|--------------2-----|
|--------3-------|--2-------|--0---------|-----------3-----|----------3---------|
|----------------|----------|------------|--------1--------|--3-----------------|


|--------0-----0-|--1-0-----|------0-3/7-5-|--0-3-1-0---0--------------0-|
|------1---------|------3-0-|--1-3---------|----------1----3--1------1---|
|--0-0-------0---|----------|--------------|-----------------------0-----|
|----------2-----|----------|------------0-|---------------------2-------|
|--------3-------|--2-------|--0-----------|------------------3----------|
|----------------|----------|--------------|----1-------3----------------| and back to verse







Добавлено: 28.07.2012
Другие материалы по этой песне:
  • Аккорды и текст

Страница создана 28.07.2012
http://primanota.ru/jay-chou/cai-hon-chords.htm
Привет, Гость.
Предлагаем пройти революционный курс по гитаре.
Подарок от PrimaNota.Ru, забирай!