PrimaNota.ru - самый крупный в мире бесплатный архив песенных текстов, аккордов, табулатур и нот


Jay Chou - An Hao - таба, видео

Регистрация Запомнить меня
Войти через:  Facebook Google Twitter Vk Yandex Mail.ru

Jay Chou - An Hao - таба, видео

Печатать
Просмотров: 191
I tabbed this fr the piano score so sorry if it's not that good...

An Hao by Jay Chou

e|------------------------------|--------------------------|----------------------------|
B|-------0---1--0---1--0--1--3--|-1--0--1--0---1--0--1--0--|----0--1--0---1--0--1----3--|
G|-----0---------------0--------|-------0------------------|-0-----0------0-------------|
D|-2-3-------2------------------|--------------------------|-------2------2-----3p0-----|
A|------------------------------|--------------------------|----------------------------|
E|------------------------------|--------------------------|----------------------------|

e|------------------------|----------------------------------|
B|-1--0--1------1----0-0--|------0---0----0---0----0---0-----|
G|----------2------2------|----0--------0--------0--------0--|
D|------------------------|--2-------2-----------------------|
A|------------------------|----------------------------------|
E|------------------------|----------------------------------|

e|--------------------------------|---------------------------------------|
B|-------0---0----0--0---0---0----|--------0---0----0---0----0---1-1-1-0--|
G|-----0--------2------2-------0--|------0--------0--------0--------------|
D|-2-2-------2-------2------------|--2-2-------2----2---2----2------------|
A|--------------------------------|---------------------------------------|
E|--------------------------------|---------------------------------------|

e|--------------------------------3-3-5--|-3-0--0---------------------------|
B|--0-0--0---1-1-1-1---1-0--0---0--------|----------0----------0--0---0-----|
G|---------------------------------------|------------0--0---0-----------0--|
D|-----------3---------------------------|----------2--------2--------------|
A|---------------------------------------|----------------------------------|
E|---------------------------------------|----------------------------------|

e|-----------------------------------|--------------------------------------|
B|-------0---0----0---0----0---0-----|-------0---0----0---0----0---1-1-1-1--|
G|-----0--------0--------0--------0--|-----0--------0--------0--------------|
D|-2-2-------2--------2--------------|-2-2-------2--------------------------|
A|-----------------------------------|--------------------------------------|
E|-----------------------------------|--------------------------------------|

e|-------------------------------------|-----------0--0-0-0----------|------------------------1-1-0--|
B|-1--0---1-1-1-1---1-0-0-1---0--3--1--|-1-0-1-3------------3-1-1-0--|-0-0-------0---------3---------|
G|-------------------------------------|-----------0-----------------|-----0-2------0-0--0----0-0----|
D|-------------------------------------|-----------------------------|-----------2-------------------|
A|-------------------------------------|-----------------------------|-------------------------------|
E|-------------------------------------|-----------------------------|-------------------------------|

e|-0----0---1----0---1----0---3-3-3-1--|-1--0-1---3--0-1---3--3--3--1--|-1------------------------|
B|----1--------0--------1-----0-0------|----------0--------------0-----|--------------0---0-------|
G|----------2--------------------------|-------------------------------|---------0--0--------2-0--|
D|-------------------------------------|-------------------------------|----2--3------------------|
A|-------------------------------------|-------------------------------|--------------------------|
E|-------------------------------------|-------------------------------|--------------------------|

e|-------------------0--0--0---|-0--------------1--1--1---|-1--0-1---3--3-3--3--5--1--1---|
B|-----------------------------|--------------------------|----------0--------------------|
G|-0--2---0----0--0--0--0--0---|-0---0----0--0------------|-------------------------------|
D|--------2--3-----------------|-----2--3-----------------|-------------------------------|
A|-----------------------------|--------------------------|-------------------------------|
E|-----------------------------|--------------------------|-------------------------------|

e|-1--------------------------|-------------------0--0--0---|-0--------------1--1-1---|
B|----------------0---0-------|-----------------------------|-------------------------|
G|----------0--0---------2-0--|-0--2---0----0--0--0--0--0---|-0---0----0--0-----------|
D|-----2--3-------------------|--------2--3-----------------|-----2--0----------------|
A|----------------------------|-----------------------------|-------------------------|
E|----------------------------|-----------------------------|-------------------------|

e|-1--0-1---3--3-3--3-3--3--3--1-0--|-------0-----------------------|
B|----------0-----------------------|---3---0---1--0---1--0--1--3---|
G|----------------------------------|-----0-------------------------|
D|----------------------------------|-2-3-------2------------3------|
A|----------------------------------|-------------------------------|
E|----------------------------------|-------------------------------|

e|---------------------------|-------------------------------------|
B|-1--0--1--0---1--0--1--0---|----0---1-----0---1-----0---1----3---|
G|-------0-------------------|-0------0--0---------0---------------|
D|---------------------------|--------2-------------------3p2------|
A|---------------------------|-------------------------------------|
E|---------------------------|-------------------------------------|

e|--------------------------|--------------------------------|------------------------------------|
B|-1--0--1------1----0--0---|-0----0-----------0--0---0------|-------0---0-----0---0----0---0-----|
G|----------0------0--------|---------0--0---0-----------0---|-----0--------0---------0--------0--|
D|--------------------------|------2---------2---------------|-2-2-------2---------2--------------|
A|--------------------------|--------------------------------|------------------------------------|
E|--------------------------|--------------------------------|------------------------------------|

e|--------------------------------------|--------------------------------------|
B|-------0---0----0---0----0---1-1-1-1--|-1--0---1-1-1-1---1-0-0-1---0--3--1---|
G|-----0--------0--------0--------------|--------------------------------------|
D|-2-2-------2--------------------------|--------------------------------------|
A|--------------------------------------|--------------------------------------|
E|--------------------------------------|--------------------------------------|

e|-----------0--0-0--0--------------|-------------------------1--1--0---|
B|-1-0-1-3-------------3--1--1--0---|-0-0-------0----------3------------|
G|-----------0----------------------|-----0-2------0-0--0-----0--0------|
D|----------------------------------|-----------2-----------------------|
A|----------------------------------|-----------------------------------|
E|----------------------------------|-----------------------------------|

e|-0----0---1----0---1----0---3-3-3-1--|-1--0-1---3--0-1---3--3---3-1--|-1--------------------------|
B|----1--------1--------1-----0-0------|----------0---------------0----|----------------0---0-------|
G|----------2--------------------------|-------------------------------|----------0--0---------2-0--|
D|-------------------------------------|-------------------------------|-----2--3-------------------|
A|-------------------------------------|-------------------------------|----------------------------|
E|-------------------------------------|-------------------------------|----------------------------|

e|-------------------0--0--|-0---------------1--1-1--|-1--0-1---3--3-3-3--5--1-1--|
B|-------------------------|-------------------------|----------0-----------------|
G|-0--2---0----0--0--0--0--|-0---0----0--0-----------|----------------------------|
D|--------2--3-------------|-----2--3----------------|----------------------------|
A|-------------------------|-------------------------|----------------------------|
E|-------------------------|-------------------------|----------------------------|

e|-1---------------------------|-------------------0--0--0---|-0--------------1--1-1---|
B|-----------------0---0-------|-----------------------------|-------------------------|
G|-----------0--0---------2-0--|-0--2---0----0--0--0--0--0---|-0---0----0--0-----------|
D|-----2--3--------------------|--------2--3-----------------|-----2--3----------------|
A|-----------------------------|-----------------------------|-------------------------|
E|-----------------------------|-----------------------------|-------------------------|

e|-1--0-1---3--3-3---3--3--3---3--1-0---|-0-----0---0----------------------------|
B|----------0---------------------------|----3-----------------------------------|
G|--------------------------------------|----------------------------------------|
D|--------------------------------------|---------------2-3---3--2---------2-3---|
A|--------------------------------------|-------------2------------2---2-2-------|
E|--------------------------------------|----------------------------------------|

e|-------------------------------|----------------------|--------------------------------|
B|-------------------------------|----------------------|--------------------------------|
G|-------------------------------|-------------------0--|-0------------------------------|
D|-3--2-----2-3--3-2--------2-3--|-3---3--3--3--3--3----|---3--2---3--3---3--3---3--2-2--|
A|--------2----------2--2-2------|----------------------|--------------------------------|
E|-------------------------------|----------------------|--------------------------------|

e|----------------------------------|--------------------|------------------------------|
B|----------------------------------|--------------------|------------------------------|
G|------------0--0--0-0--0--0-------|--------------------|-------0--0---0---------------|
D|-2----2--2------------------3-3-3-|-3-2-2-3--3----3----|-2-2-0----------2-0-0--0------|
A|----3-----------------------------|------------------2-|--------------------------3---|
E|----------------------------------|--------------------|------------------------------|

e|-------------------------------|------------------------------|---------------------------------|
B|-------------------------------|------------------------------|----1---1--1--1---1-1-1---1--0---|
G|-----------0-------------------|-------0--0--0--------0--2----|---------------------------------|
D|-3-2-3-2------3-3--3--2--2--2--|-----2---------3--2---3----3--|-3-------------------------------|
A|-------------------------------|-2-3--------------------------|---------------------------------|
E|-------------------------------|------------------------------|---------------------------------|

e|----------------------------|--------------------0--0---0---|-0---------------1--1-1---|
B|-0--------------0---0-------|-------------------------------|--------------------------|
G|----------0--0---------2-0--|-0--2---0----0---0--0--0---0---|-0---0----0---0-----------|
D|-----2--3-------------------|--------2--3-------------------|-----2--3-----------------|
A|----------------------------|-------------------------------|--------------------------|
E|----------------------------|-------------------------------|--------------------------|

e|-1--0-1---3--3-3--3-5--1--1--|-1--------------------------|-------------------0--0---0---|
B|----------0------------------|----------------0---0-------|------------------------------|
G|-----------------------------|----------0--0---------2-0--|-0--2---0----0--0--0--0---0---|
D|-----------------------------|-----2--3-------------------|--------2--3------------------|
A|-----------------------------|----------------------------|------------------------------|
E|-----------------------------|----------------------------|------------------------------|

e|-0--------------1--1-1---|-1--0-1--3--3-3--3-3--3-3--1-0--|-0-----0--------------------------|
B|-------------------------|---------0----------------------|----3-----------------0---0-------|
G|-0---0----0--0-----------|--------------------------------|----------------0--0---------2-0--|
D|-----2--3----------------|--------------------------------|-----------2--3-------------------|
A|-------------------------|--------------------------------|----------------------------------|
E|-------------------------|--------------------------------|----------------------------------|

e|-------------------0--0---0---|-0--------------1--1-1---|-1----0----1------------------------|
B|------------------------------|-------------------------|------------------------------------|
G|-0--2---0----0--0--0--0---0---|-0---0----0--0-----------|------------------------------------|
D|--------2--3------------------|-----2--3----------------|------------------------------------|
A|------------------------------|-------------------------|------------------------------------|
E|------------------------------|-------------------------|------------------------------------|
Добавлено: 02.07.2012
Другие материалы по этой песне:
  • Аккорды и текст

Страница создана 02.07.2012
http://primanota.ru/jay-chou/an-hao-chords.htm
Привет, Гость.
Предлагаем пройти революционный курс по гитаре.
Подарок от PrimaNota.Ru, забирай!