PrimaNota.ru - самый крупный в мире бесплатный архив песенных текстов, аккордов, табулатур и нот


Jay & The Americans - Magic - бас-таба, видео

Регистрация Запомнить меня
Войти через:  Facebook Google Twitter Vk Yandex Mail.ru

Jay & The Americans - Magic - бас-таба, видео

Печатать
Просмотров: 92
Jay_and_the_Americans-Magic.btab

Basstab by Jan Bjorklund, Finland; 
jani_bjorklund@yahoo.se 
You are welcome to request for basstabs!
Bienvenidos a pedirme transcripciones para el bajo!
Fingering and positions as suggested by TablEdit. 

TablEdited by Jan Bjorklund
Tuning : E A D G 	Time Signature: 4/4

 |       |       |       |        |       |       |       |        
|----------------0---------------|------------0-------------------|
|------------3-----------3-------|----------------3---------------|
|1-------------------------------|1-----------------------1-------|
|--------------------------------|--------------------------------|

 |       |       |       |        |       |       |       |        
|--------------------------------|------------0-------------------|
|----------------0---------------|----------------0---------------|
|------------1-----------1-------|------------------------1-------|
|3-------------------------------|3-------------------------------|

 |       |       |       |        |       |       |       |        
|------------0---3-------0-------|------------5---3---------------|
|1-------------------------------|------------------------5-------|
|--------------------------------|6-------------------------------|
|--------------------------------|--------------------------------|

 |       |       |       |        |       |       |       |        
|--------------------------------|--------------------------------|
|------------------------3-------|--------------------------------|
|------------0---3---------------|--------------------------------|
|1-------------------------------|1-------------------------------|

 |       |       |       |        |       |       |       |        
|----------------0---------------|------------0-------------------|
|------------3-----------3-------|----------------3---------------|
|1-------------------------------|1-----------------------1-------|
|--------------------------------|--------------------------------|

 |       |       |       |        |       |       |       |        
|--------------------------------|------------0-------------------|
|----------------0---------------|----------------0---------------|
|------------1-----------1-------|------------------------1-------|
|3-------------------------------|3-------------------------------|

 |       |       |       |        |       |       |       |        
|------------0---3-------0-------|------------5---3---------------|
|1-------------------------------|------------------------5-------|
|--------------------------------|6-------------------------------|
|--------------------------------|--------------------------------|

 |       |       |       |        |       |       |       |        
|--------------------------------|--------------------------------|
|------------------------3-------|------------------------3-------|
|------------0---3---------------|------------0---3---------------|
|1-------------------------------|1-------------------------------|

 |       |       |       |        |       |       |       |        
|----------------0---------------|------------0-------------------|
|------------3-----------3-------|----------------3---------------|
|1-------------------------------|1-----------------------1-------|
|--------------------------------|--------------------------------|

 |       |       |       |        |       |       |       |        
|--------------------------------|------------0-------------------|
|----------------0---------------|----------------0---------------|
|------------1-----------1-------|------------------------1-------|
|3-------------------------------|3-------------------------------|

 |       |       |       |        |       |       |       |        
|------------0---3-------0-------|------------5---3---------------|
|1-------------------------------|------------------------5-------|
|--------------------------------|6-------------------------------|
|--------------------------------|--------------------------------|

 |       |       |       |        |       |       |       |        
|--------------------------------|--------------------------------|
|------------------------3-------|--------------------------------|
|------------0---3---------------|--------------------------------|
|1-------------------------------|1-------------------------------|

 |       |       |       |        |       |       |       |        
|--------------------------------|--------------------------------|
|------------------------0-------|----------------0---------------|
|----------------1---------------|------------1-----------1-------|
|3-----------3-------------------|3-------------------------------|

 |       |       |       |        |       |       |       |        
|--------------------------------|----------------0---------------|
|1-----------1-----------1-------|------------1-----------1-------|
|----------------1---------------|1-------------------------------|
|--------------------------------|--------------------------------|

 |       |       |       |        |       |       |       |        
|--------------------------------|--------------------------------|
|------------0---3-------0-------|----------------0-------3-------|
|1-------------------------------|1-----------1-------------------|
|--------------------------------|--------------------------------|

 |       |       |       |        |       |       |       |        
|--------------------------------|--------------------------------|
|----------------0---------------|--------------------------------|
|------------3-----------3-------|--------------------------------|
|1-------------------------------|1-------------------------------|

 |       |       |       |        |       |       |       |        
|----------------0---------------|------------0-------------------|
|------------3-----------3-------|----------------3---------------|
|1-------------------------------|1-----------------------1-------|
|--------------------------------|--------------------------------|

 |       |       |       |        |       |       |       |        
|--------------------------------|------------0-------------------|
|----------------0---------------|----------------0---------------|
|------------1-----------1-------|------------------------1-------|
|3-------------------------------|3-------------------------------|

 |       |       |       |        |       |       |       |        
|------------0---3-------0-------|------------5---3---------------|
|1-------------------------------|------------------------5-------|
|--------------------------------|6-------------------------------|
|--------------------------------|--------------------------------|

 |       |       |       |        |       |       |       |        
|--------------------------------|--------------------------------|
|------------------------3-------|------------------------3-------|
|------------0---3---------------|------------0---3---------------|
|1-------------------------------|1-------------------------------|

 |       |       |       |        |       |       |       |        
|----------------0---------------|------------0-------------------|
|------------3-----------3-------|----------------3---------------|
|1-------------------------------|1-----------------------1-------|
|--------------------------------|--------------------------------|

 |       |       |       |        |       |       |       |        
|--------------------------------|------------0-------------------|
|----------------0---------------|----------------0---------------|
|------------1-----------1-------|------------------------1-------|
|3-------------------------------|3-------------------------------|

 |       |       |       |        |       |       |       |        
|------------0---3-------0-------|------------5---3---------------|
|1-------------------------------|------------------------5-------|
|--------------------------------|6-------------------------------|
|--------------------------------|--------------------------------|

 |       |       |       |        |       |       |       |        
|--------------------------------|--------------------------------|
|------------------------3-------|--------------------------------|
|------------0---3---------------|--------------------------------|
|1-------------------------------|1-------------------------------|

 |       |       |       |        |       |       |       |        
|----------------0---------------|------------0-------------------|
|------------3-----------3-------|----------------3---------------|
|1-------------------------------|1-----------------------1-------|
|--------------------------------|--------------------------------|

 |       |       |       |        |       |       |       |        
|--------------------------------|------------0-------------------|
|----------------0---------------|----------------0---------------|
|------------1-----------1-------|------------------------1-------|
|3-------------------------------|3-------------------------------|

 |       |       |       |        |       |       |       |        
|------------0---3-------0-------|------------5---3---------------|
|1-------------------------------|------------------------5-------|
|--------------------------------|6-------------------------------|
|--------------------------------|--------------------------------|

 |       |       |       |        |       |       |       |        
|--------------------------------|--------------------------------|
|------------------------3-------|------------------------3-------|
|------------0---3---------------|------------0---3---------------|
|1-------------------------------|1-------------------------------|

 |       |       |       |        |       |       |       |        
|----------------0---------------|------------0-------------------|
|------------3-----------3-------|----------------3---------------|
|1-------------------------------|1-----------------------1-------|
|--------------------------------|--------------------------------|

 |       |       |       |        |       |       |       |        
|--------------------------------|------------0-------------------|
|----------------0---------------|----------------0---------------|
|------------1-----------1-------|------------------------1-------|
|3-------------------------------|3-------------------------------|

 |       |       |       |        |       |       |       |        
|------------0---3-------0-------|------------5---3---------------|
|1-------------------------------|------------------------5-------|
|--------------------------------|6-------------------------------|
|--------------------------------|--------------------------------|

 |       |       |       |        |       |       |       |        
|--------------------------------|--------------------------------|
|------------------------3-------|--------------------------------|
|------------0---3---------------|--------------------------------|
|1-------------------------------|1-------------------------------|

 |       |       |       |        |       |       |       |        
|--------------------------------|--------------------------------|
|------------------------0-------|----------------0---------------|
|----------------1---------------|------------1-----------1-------|
|3-----------3-------------------|3-------------------------------|

 |       |       |       |        |       |       |       |        
|--------------------------------|----------------0---------------|
|1-----------1-----------1-------|------------1-----------1-------|
|----------------1---------------|1-------------------------------|
|--------------------------------|--------------------------------|

 |       |       |       |        |       |       |       |        
|--------------------------------|--------------------------------|
|------------0---3-------0-------|----------------0-------3-------|
|1-------------------------------|1-----------1-------------------|
|--------------------------------|--------------------------------|

 |       |       |       |        |       |       |       |        
|--------------------------------|--------------------------------|
|----------------0---------------|--------------------------------|
|------------3-----------3-------|--------------------------------|
|1-------------------------------|1-------------------------------|

 |       |       |       |        |       |       |       |        
|----------------0---------------|------------0-------------------|
|------------3-----------3-------|----------------3---------------|
|1-------------------------------|1-----------------------1-------|
|--------------------------------|--------------------------------|

 |       |       |       |        |       |       |       |        
|--------------------------------|------------0-------------------|
|----------------0---------------|----------------0---------------|
|------------1-----------1-------|------------------------1-------|
|3-------------------------------|3-------------------------------|

 |       |       |       |        |       |       |       |        
|------------0---3-------0-------|------------5---3---------------|
|1-------------------------------|------------------------5-------|
|--------------------------------|6-------------------------------|
|--------------------------------|--------------------------------|

 |       |       |       |        |       |       |       |        
|--------------------------------|--------------------------------|
|------------------------3-------|------------------------3-------|
|------------0---3---------------|------------0---3---------------|
|1-------------------------------|1-------------------------------|

 |       |       |       |        |       |       |       |        
|----------------0---------------|------------0-------------------|
|------------3-----------3-------|----------------3---------------|
|1-------------------------------|1-----------------------1-------|
|--------------------------------|--------------------------------|

 |       |       |       |        |       |       |       |        
|--------------------------------|------------0-------------------|
|----------------0---------------|----------------0---------------|
|------------1-----------1-------|------------------------1-------|
|3-------------------------------|3-------------------------------|

 |       |       |       |        |       |       |       |        
|------------0---3-------0-------|------------5---3---------------|
|1-------------------------------|------------------------5-------|
|--------------------------------|6-------------------------------|
|--------------------------------|--------------------------------|

 |       |       |       |        |       |       |       |        
|--------------------------------|--------------------------------|
|------------------------3-------|--------------------------------|
|------------0---3---------------|--------------------------------|
|1-------------------------------|1-------------------------------|

 |       |       |       |        |       |       |       |        
|--------------------------------|--------------------------------|
|------------0-----------3-------|1-----------4-----------4-------|
|1-------------------------------|--------------------------------|
|--------------------------------|--------------------------------|

 |       |       |       |        
|--------------------------------|
|--------------------------------|
|1-------------------------------|
|--------------------------------|


Created with TablEdit http://www.tabledit.com/


     
Добавлено: 24.11.2013
Другие материалы по этой песне:
  • Аккорды и текст

Страница создана 24.11.2013
http://primanota.ru/jay-and-the-americans/magic-chords.htm
Привет, Гость.
Предлагаем пройти революционный курс по гитаре.
Подарок от PrimaNota.Ru, забирай!