PrimaNota.ru - самый крупный в мире бесплатный архив песенных текстов, аккордов, табулатур и нот


Jaws - What We Havent Got Yet - бас-таба, видео

Регистрация Запомнить меня
Войти через:  Facebook Google Twitter Vk Yandex Mail.ru

Jaws - What We Havent Got Yet - бас-таба, видео

Печатать
Просмотров: 118
Уроки эстрадного вокала в Санкт-Петербурге
-------------------------------------------------------------------------------
                         What We Haven't Got Yet - JAWS
-------------------------------------------------------------------------------
Tabbed by: Rory H
E-mail: rdeh10@googlemail.com

Tuning: EADG

As with the rest of my bass tabs, this was done on a guitar with a pitch shifter so may not be 100% but it
definitely sounds fine :) Whereever you see some x's that means mute the note but you can play 5's on the
A pretty much all the time when they are there if that works better for you.
Leave any feedback in the comments or send me an email and I'll do what I can :)

MAIN INTRO/CHORUS LINE:
G|-------------------------------------------------------|
D|-------------------------------------------------------|
A|-5--5--5-5-5-5--5-5-5--5-7-9(\)------------------------|
E|--------------------------------2--2-2-2-5--5--5-5-5-5-|

G|-----------------------------------------------------------|
D|-x-x-------------------------------------------------------|
A|-x-x-5--5--5-5-5-5--5-5-5--5-7-9(\)------------------------| 
E|-x-x--------------------------------2--2-2-2-5--5--5-5-5-5-|

VERSE:
G|------------|------------|------------|
D|------------|------------|------------|  
A|-x-x-5------|------------|------------| x2
E|------------|-x-x-2------|-x-x-5------|

G|------------------------|-----------------------|------------------------|----------------------|
D|------------------------|-----------------------|------------------------|----------------------|
A|-5--5---5--5--5-5--5--5-|-2--2--2-2-------------|-5--5---5--5--5-5--5--5-|-2--2--2-2------------|
E|------------------------|-----------2--2-2--2-2-|------------------------|-----------2--2-2-2-2-|

CHORUS:
G|-------------------------------------------------------|
D|-------------------------------------------------------|
A|-5--5--5-5-5-5--5-5-5--5-7-9(\)------------------------|
E|--------------------------------2--2-2-2-5--5--5-5-5-5-|

G|-----------------------------------------------------------|
D|-x-x-------------------------------------------------------| 
A|-x-x-5--5--5-5-5-5--5-5-5--5-7-9(\)------------------------| x3
E|-x-x--------------------------------2--2-2-2-5--5--5-5-5-5-|

VERSE 2:
G|------------|------------|------------|
D|------------|------------|------------|  
A|-x-x-5------|------------|------------| x2
E|------------|-x-x-2------|-x-x-5------|

G|------------------------|-----------------------|------------------------|----------------------|
D|------------------------|-----------------------|------------------------|----------------------|
A|-5--5---5--5--5-5--5--5-|-2--2--2-2-------------|-5--5---5--5--5-5--5--5-|-2--2--2-2------------|
E|------------------------|-----------2--2-2--2-2-|------------------------|-----------2--2-2-2-2-|

CHORUS:
G|-------------------------------------------------------|
D|-------------------------------------------------------|
A|-5--5--5-5-5-5--5-5-5--5-7-9(\)------------------------|
E|--------------------------------2--2-2-2-5--5--5-5-5-5-|

G|-----------------------------------------------------------|
D|-x-x-------------------------------------------------------| 
A|-x-x-5--5--5-5-5-5--5-5-5--5-7-9(\)------------------------| x3
E|-x-x--------------------------------2--2-2-2-5--5--5-5-5-5-|

BRIDGE:
G|-----------------|-----------------|-----------------|-----------|
D|-----------------|-----------------|-----------------|-----------|
A|-5-5-5-5-5-5-5-5-|-5-5-5-5-5-5-5/--|-5-5-5-5-5-5-5-5-|-17-[x12]\-|
E|-----------------|-----------------|-----------------|-----------|

G|-----------------|-------------------|-----------------|--------------|
D|-----------------|-------------------|-----------------|--------------|
A|-7-5-5-5-5-5-5-5-|-7-5-5-5-5-5-5-5-5-|-7-5-5-5-5-5-5-5-|-7-5-5-5-5----|
E|-----------------|-------------------|-----------------|--------------|

G|-----------------|-----------------|-----------------|----------------------|
D|-----------------|-----------------|-----------------|----------------------|
A|-5-5-5-5-5-5-5-5-|-5-5-5-5-5-5-5-5-|-5-5-5-5-5-5-5-5-|-5-5-5-5-5-5-5-5-5----|
E|-----------------|-----------------|-----------------|----------------------|

CHORUS:
G|----------------------------|
D|----------------------------|
A|----------------------------|
E|-10\-2--2-2-2-5--5--5-5-5-5-|

G|-----------------------------------------------------------|
D|-x-x-------------------------------------------------------| 
A|-x-x-5--5--5-5-5-5--5-5-5--5-7-9(\)------------------------| x3
E|-x-x--------------------------------2--2-2-2-5--5--5-5-5-5-|

FINISH:
G|---------------------------------------------------------------------------|
D|---------------------------------------------------------------------------|
A|-5-5-5-5-5-5-5-5-5---------------------------------------------------------|
E|---------------------------------------------------------------------------|

| /  slide up
| \  slide down
| h  hammer-on
| p  pull-off
| ~  vibrato
| +  harmonic
| x  Mute note
===============================================================================
Добавлено: 23.04.2016
Другие материалы по этой песне:

Страница создана 23.04.2016
http://primanota.ru/jaws/what-we-havent-got-yet-chords.htm
Привет, Гость.
Предлагаем пройти революционный курс по гитаре.
Подарок от PrimaNota.Ru, забирай!