PrimaNota.ru - самый крупный в мире бесплатный архив песенных текстов, аккордов, табулатур и нот


Jaws - Time - бас-таба, видео

Регистрация Запомнить меня
Войти через:  Facebook Google Twitter Vk Yandex Mail.ru

Jaws - Time - бас-таба, видео

Печатать
Просмотров: 55
JAWS are a quality band - I think this is all correct but obviously listen to the song if you want to be spot
on with the timing.
Dan

*No bass on first part of intro*

part before main riff (0:47)

G |--------------------------------|
D |--------------------------------|
A |--------------------------------|
E |----------------------------11/2|


Second part of intro and verse (0:48):

G |--------------------------------|--------------------------------|
D |--------------------------------|--------------------------------| x4
A |--------------------------------|2-4---4-2-4---4-2-4---4-2---4---|
E |2-4---4-2-4---4-2-4---4-2-4---4-|--------------------------------|

Chorus (1:22)
G |--------------------------------|--------------------------------|
D |--------------------------------|--------------------------------| x2
A |4--4----2--2--------------------|--------------------------------|
E |-----------------0~----------2--|4--4----4--4----4--4----4--4----|

Pre verse and second verse (1:40)
G |--------------------------------|--------------------------------|
D |--------------------------------|--------------------------------| x4
A |--------------------------------|2-4---4-2-4---4-2-4---4-2---4---|
E |2-4---4-2-4---4-2-4---4-2-4---4-|--------------------------------|

Chorus (2:16)
G |--------------------------------|--------------------------------|
D |--------------------------------|--------------------------------| x2
A |4--4----2--2--------------------|--------------------------------|
E |-----------------0~----------2--|4--4----4--4----4--4----4--4----|

Solo (2:32)
G |--------------------------------|--------------------------------|
D |--------------------------------|--------------------------------| x3
A |4-----2-----4-----2-----4--2----|--------------------------------|
E |--------------------------------|2-4-4-4-4-4-2-2-2-4-4-4-2-2-4-4-|

G |--------------------------------|--------------------------------|
D |--------------------------------|--------------------------------|
A |4-----2-----4-----2-----4--2----|--------------------------------|
E |--------------------------------|2-4-4-4-4-4-4-4-4-4-4-4-4-4-4/--|

Post solo bit (3:08)
G |--------------------------------|--------------------------------|
D |--------------------------------|--------------------------------| x2
A |--------------------------------|2-4---4-2-4---4-2-4---4-2---4---|
E |2-4---4-2-4---4-2-4---4-2-4---4-|--------------------------------|

Chorus (3:25)
G |--------------------------------|--------------------------------|
D |--------------------------------|--------------------------------| x2
A |4-------2-----------------------|--------------------------------|
E |-----------------0~----------2--|4--4----4--4----4--4----4--4----| 
Добавлено: 21.11.2015
Другие материалы по этой песне:
  • Аккорды и текст

Страница создана 21.11.2015
http://primanota.ru/jaws/time-chords.htm
Привет, Гость.
Предлагаем пройти революционный курс по гитаре.
Подарок от PrimaNota.Ru, забирай!