PrimaNota.ru - самый крупный в мире бесплатный архив песенных текстов, аккордов, табулатур и нот


Jaws - Sunset State - таба, видео

Регистрация Запомнить меня
Войти через:  Facebook Google Twitter Vk Yandex Mail.ru

Jaws - Sunset State - таба, видео

Печатать
Просмотров: 99
-------------------------------------------------------------------------------
                             Sunset State - JAWS
-------------------------------------------------------------------------------
Tabbed by:
E-mail:

Tuning: Standard

Main Riff

e|---------------------------------------------------------------------------|
B|-----------------------------------15--------------------------------------|
G|-----14---16---14---16---14---16--------16---16---14---16---14---16---14---|
D|---------------------------------------------------------------------------|
A|---------------------------------------------------------------------------|
E|---------------------------------------------------------------------------|

e|---------------------------------------------------------------------------|
B|-----15-------------------------------------------15-------------15--------|
G|16--------16---16---14---16---14---16---14---16--------16---16--------16---|
D|---------------------------------------------------------------------------|
A|---------------------------------------------------------------------------|
E|---------------------------------------------------------------------------|

e|---------------------------------------------------------------------------|
B|----------15-15------------------------------------------------------------|
G|14---14-----------16---14---12---------------------------------------------|
D|---------------------------------------------------------------------------|
A|---------------------------------------------------------------------------|
E|---------------------------------------------------------------------------|


************************************

| /   slide up
| \   slide down
| h   hammer-on
| p   pull-off
| ~   vibrato
| +   harmonic
| x   Mute note
| b   Bend
| pb  Pre-bend
| br  Bend release
| pbr Pre-bend release
| brb Bend release bend

************************************
Добавлено: 21.11.2015
Другие материалы по этой песне:
  • Аккорды и текст

Страница создана 21.11.2015
http://primanota.ru/jaws/sunset-state-chords.htm
Привет, Гость.
Предлагаем пройти революционный курс по гитаре.
Подарок от PrimaNota.Ru, забирай!