PrimaNota.ru - самый крупный в мире бесплатный архив песенных текстов, аккордов, табулатур и нот


Jaws - Cameron - таба, видео

Регистрация Запомнить меня
Войти через:  Facebook Google Twitter Vk Yandex Mail.ru

Jaws - Cameron - таба, видео

Печатать
Просмотров: 68
Уроки эстрадного вокала в Санкт-Петербурге
Cameron by Jaws
Tabbed by: Connor Speake

Tuning: Standard EADGBe

Intro/Chorus:
E|--18--16--18--16---------------------
B|------------------19--14--19--16-----
G|-------------------------------------
D|-------------------------------------
A|-------------------------------------
E|-------------------------------------
(Repeat as necessary)

Verse:
E|----------------------
B|--16--14--11--14--11--
G|----------------------
D|----------------------
A|----------------------
E|----------------------
(Repeat as necessary)

Bridge:
E|----------------------
B|--19--18--16--14--11--
G|----------------------
D|----------------------
A|----------------------
E|----------------------
(x16)

Another guitar comes in with this over the top of the previous part mid-way
E|--------------------
B|--16(x16)--14(x16)-- 
G|--------------------
D|--------------------
A|--------------------
E|--------------------
(x2)

E|----------------------
B|--16--14--11--14--11-- 
G|---------------------- 
D|----------------------
A|----------------------
E|----------------------
(x2)

Outro:
E|--------------------------------------------------
B|--19--18--16--14--11--19--18--16--14--11--16--14--
G|--------------------------------------------------
D|--------------------------------------------------
A|--------------------------------------------------
E|--------------------------------------------------
(x2)

E|----------------------
B|--19--18--16--14--11--
G|----------------------
D|----------------------
A|----------------------
E|----------------------
(x4)

Добавлено: 21.11.2015
Другие материалы по этой песне:
  • Аккорды и текст

Страница создана 21.11.2015
http://primanota.ru/jaws/cameron-chords.htm
Привет, Гость.
Предлагаем пройти революционный курс по гитаре.
Подарок от PrimaNota.Ru, забирай!