PrimaNota.ru - самый крупный в мире бесплатный архив песенных текстов, аккордов, табулатур и нот


Jawbreaker - Tour Song - текст песни, таба, видео

Регистрация Запомнить меня
Войти через:  Facebook Google Twitter Vk Yandex Mail.ru

Jawbreaker - Tour Song - текст песни, таба, видео

Печатать
Просмотров: 222
Band: Jawbreaker
Song: Tour Song
Album: Bivouac
Tuning: standard (eBGDAE)

tabbed by: *Confused punk*

Key:
/ - slide up
PM... - Palm mute

The strum pattern is really easy to figure out, so I left that out on most parts. 
The prechorus is the only part I'm not 100% sure is correct, but I think it is. Here you go

Intro
e||-------------||
B||-------------||
G||-------------||x4
D||-2-2-x-x-x-x-||
A||-2-2-x-x-x-x-||
E||-0-0-x-x-x-x-||

Verse
e||--------------------||
B||--------------------||
G||-------------7------||
D||-0-2--0-5--0-7--0-2-||x2
A||-0-2--0-5--0-5--0-2-||
E||-0-0--0-3--0-5--0-0-||

The second time you skip the last two chords and go straight to this:

e||-------------||
B||-------------||
G||-------------||x2
D||-2-2-x-x-x-x-||
A||-2-2-x-x-x-x-||
E||-0-0-x-x-x-x-||

e||--------------------||
B||--------------------||
G||-------------7------||
D||-0-2--0-5--0-7--0-2-||x2
A||-0-2--0-5--0-5--0-2-||
E||-0-0--0-3--0-5--0-0-||
(pick slide after the first time)

Prechorus
e||--------------------------------------||
B||--------------------------------------||
G||-------4-----4-----7--------7-------9-||x3
D||----0----5---5-------7------7-------9-||
A||-3--------5--5--------5-----5-------7-||
E||-----3-----3-3--3/5----5----5--5/7--7-||

e||----------||
B||----------||
G||----------||
D||-2--5--7--||x4
A||-2--5--7--||
E||-0--3--5--||

Chorus
e||------------||
B||------------||
G||-------7----||
D||-2--5--7--7-||x4
A||-2--5--5--7-||
E||-0--3--5--5-||
(fourth time you strum open strings twice before last chord)

Repeat intro-chorus

Instrumental/Solo
e||--------------------------------------------||
B||--------------------------------------------||
G||--------------------------------------------||
D||-14--16--17--16--12--10--9--11--12--7--5--4-||x2
A||--x---x---x---x---x--x---x--x---x---x--x--x-||
E||-12--14--15--14--10--8---7--9---10--5--3--2-||

Outro
e||------------||
B||------------||
G||-------7----||
D||-2--5--7--7-||x4
A||-2--5--5--7-||
E||-0--3--5--5-||
PM.............

e||--------------------------------------------||
B||--------------------------------------------||
G||--------------------------------------------||
D||-14--16--17--16--12--10--9--11--12--7--5--4-||x5 (Fade out)
A||--x---x---x---x---x--x---x--x---x---x--x--x-||
E||-12--14--15--14--10--8---7--9---10--5--3--2-||


Thanks!
Добавлено: 30.06.2012
Другие материалы по этой песне:
  • Аккорды и текст

Страница создана 27.05.2012
http://primanota.ru/jawbreaker/tour-song-chords.htm
Привет, Гость.
Предлагаем пройти революционный курс по гитаре.
Подарок от PrimaNota.Ru, забирай!