PrimaNota.ru - самый крупный в мире бесплатный архив песенных текстов, аккордов, табулатур и нот


Jaw Box - Dreamless - текст песни, бас-таба, видео

Регистрация Запомнить меня
Войти через:  Facebook Google Twitter Vk Yandex Mail.ru

Jaw Box - Dreamless - текст песни, бас-таба, видео

Печатать
Просмотров: 144
Artist - Jawbox
Song - Dreamless
Album - Novelty
Bassist - Kim Coletta
Tabber- Str84ever

There is a lack of Jawbox music on UG. I am adding bass guitar tabs at the moment but 
hopefully be adding more guitar and guitar pro in the future.

I am not putting the rhythm in on the tabs or the number of times to play parts on most 
it. It's fairly straight forward but if you can't work it out ask me.

Intro:

G|-----------------|-----------------|
D|-----------------|-----------------|
A|-5-5-5-5-5-5-5-5-|-----------------|
E|-----------------|-5-5-5-5-5-5-5-5-|

Verse
 |---play twice-------------------------------------------------------------------|
G|-----------------|------------------------|-----------------|-------------------|
D|-----------------|------------------------|-----------------|-------------------|
A|-----------------|------------------------|-2-2-2-2-2-2-2-2-|-5-5-5-5-5-5-5-5---|
E|-1-1-1-1-1-1-1-1-|10-10-10-10-10-10-10-10-|-----------------|-------------------|

The 10th fret on E string and 5th fret on A string are both D so interchange
as you wish this is how i play it though.

Chorus - Two riffs here

Riff one

G|-----------------|-----------------|-----------------|-----------------|
D|-----------------|-----------------|-----------------|-----------------|
A|-----------------|-3-3-3-3-3-3-3-3-|-----------------|-----------------|
E|-0-0-0-0-0-0-0-0-|-----------------|-1-1-1-1-1-1-1-1-|-5-5-5-5-5-5-5-5-|

Riff two - this is played usually before going into the verse again but
it is thrown in at other parts.

G|-----------------|-----------------|-----------------|
D|-----------------|-----------------|-----------------|
A|-----------------|-3-3-3-3-3-3-3-3-|-----------------|
E|-0-0-0-0-0-0-0-0-|-----------------|-5-5-5-5-5-5-5-5-|

Sometimes its just one whole A note played or sometimes its 8ths. Do as you
wish.

Bridge -  A note is eighth - E notes is held - empty bars are no bass.

Riff one
G|-----------------|-----------------|-----------------|
D|-----------------|-----------------|-----------------|
A|-----------------|-----------------|-----------------|
E|-5---------------|-----------------|-0---------------|

Riff two

G|-----------------|-----------------|-----------------|-----------------|
D|-----------------|-----------------|-----------------|-----------------|
A|-----------------|-----------------|-5-5-5-5-5-5-5-5-|-2-2-2-2-2-2-2-2-|
E|-2-2-2-2-2-2-2-2-|-3-3-3-3-3-3-3-3-|-----------------|-----------------|

This part ends on A note which is open A string or 5th fret on E string.

This goes back into Verse then Chorus.

Outro

Riff one

G|-----------------|-----------------|
D|-----------------|-----------------|
A|-2-2-2-2-2-2-2-2-|-5-5-5-5-5-5-5-5-|
E|-----------------|-----------------|

Riff two

G|-----|-----------------|
D|-----|-----------------|
A|-2-2-|-5-5-5-5-5-5-5-5-|
E|-----|-----------------|

That's the whole song.

Any queries or whatever ask me on my UG profile.
Добавлено: 10.07.2012
Вам также может быть интересно:
Другие материалы по этой песне:
  • Аккорды и текст

Страница создана 22.03.2012
http://primanota.ru/jaw-box/dreamless-chords.htm
Привет, Гость.
Предлагаем пройти революционный курс по гитаре.
Подарок от PrimaNota.Ru, забирай!