PrimaNota.ru - самый крупный в мире бесплатный архив песенных текстов, аккордов, табулатур и нот


Javier Navarrete - Un Cuento Pans Labyrinth Theme - таба, видео

Регистрация Запомнить меня
Войти через:  Facebook Google Twitter Vk Yandex Mail.ru

Javier Navarrete - Un Cuento Pans Labyrinth Theme - таба, видео

Печатать
Просмотров: 243
Уроки эстрадного вокала в Санкт-Петербурге
I found this somewhere:

El Laberinto del Fauno (Pan's Labyrinth) Theme
Transposed to guitar by tuluks.
one of the best theme songs to me. fits the movie prefectly.
hope you enjoy!!
E||--------------------------------|--------------------------------|
B||------------1--------------1----|------------3--------------3----|
G||--------------------------------|--------------------------------|
D||-------2--------------2---------|-------2--------------2---------|
A||--0--------------0--------------|--2--------------2--------------|
E||--------------------------------|--------------------------------|

--0-----------0--1--0---------0----|------------0----0-----------0--1--|
-----3--1--3-----------------------|--------------------3--1--3--------|
--------2----------------2---------|-------2---------------2-----------|
-----------------------------------|-----------------------------------|
--3-----------------3--------------|--3--------------3-----------------|
-----------------------------------|-----------------------------------|

------------1--------------1----|--------------1--0------------1----|
--3-----------------------------|--3--1--0--1--3-----3--------------|
-------2--------------2---------|--------1----------------1---------|
--0--------------0--------------|--0-----------------0--------------|
--------------------------------|-----------------------------------|
--------------------------------|-----------------------------------|

------------1----1---------3----|
--3------------------------6----|
-------1--------------1---------|
--0--------------0--------------|
--------------------------------|
--------------------------------|

||---0-----------------------------|
||-------------1--------------1----|
||*--------------------------------|
||*-------2--------------2---------|
||---0--------------0--------------|
||---------------------------------|
>>
--0-----------------------------|--0----1----3----1--------------|
------------1--------------1----|------------1--------------3----|
--------------------------------|----------------------2---------|
-------2--------------2---------|-------2---------0--------------|
--3--------------3--------------|--3-----------------------------|
--------------------------------|--------------------------------|

-----------------1----3----5----|--4---------1--------------1-----||
------------3--------------6----|-------0--------------0----------||
-------2--------------2---------|--------------------------------*||
--0--------------0--------------|--2--------------2--------------*||
--------------------------------|---------------------------------||
--------------------------------|---------------------------------||

--0-----------------------------|--------------------------------|
------------1--------------1----|--3---------3----1---------1----|
--------------------------------|--------------------------------|
-------2--------------2---------|-------2--------------2---------|
--0--------------0--------------|--2--------------0--------------|
--------------------------------|--------------------------------|

--------------------------------|--------------------------------||
--0---------0-------------------|------------5--/--10------------||
-----------------2--------------|--2----5------------------------||
-------2-------------------2----|--------------------------------||
-----------------0----3---------|-------------------0------------||
--4-----------------------------|--------------------------------||
kid©2007™
with thanks to Edsko for piano!
Добавлено: 25.02.2012
Вам также может быть интересно:
Другие материалы по этой песне:
  • Аккорды и текст

Страница создана 25.02.2012
http://primanota.ru/javier-navarrete/un-cuento-pans-labyrinth-theme-chords.htm
Привет, Гость.
Предлагаем пройти революционный курс по гитаре.
Подарок от PrimaNota.Ru, забирай!