PrimaNota.ru - самый крупный в мире бесплатный архив песенных текстов, аккордов, табулатур и нот


Javier Navarrete - Pans Labyrinth - таба, видео

Регистрация Запомнить меня
Войти через:  Facebook Google Twitter Vk Yandex Mail.ru

Javier Navarrete - Pans Labyrinth - таба, видео

Печатать
Просмотров: 271
Date: Sunday 28th September 2008
Tabbed by: James-David Moore
Email: jd.44.james-david.moore@hotmail.com

Tuning: E-A-D-G-B-e

Infomation: Violin tabbed for Guitar use distortion with 100% Reverb and 20& Delay. 
tabbed for Guitar, use a bass clean sound with 40% Reverb.

| ~  Vibrato
| <  Fade In

[Piano]
e|-------------------------------------------------------------|
B|------4-----4------------6-----6-----------------------------|
G|-------------------------------------------------------------|
D|----5-----5------------5-----5-------------------------------|
A|--3-----3------------5-----5---------------------------------|
E|-------------------------------------------------------------|

[Violin]
    <                       <
e|--15-13-11-13-15-16-15~~~-15-13-11-13-15-16-13~~~-------------|
B|--------------------------------------------------------------|
G|--------------------------------------------------------------|
D|--------------------------------------------------------------|
A|--------------------------------------------------------------|
E|--------------------------------------------------------------|

[Piano]
e|--------------------------------------------------------------|
B|-------8------8------8------8------9------9------9------------|
G|--------------------------------------------------------------|
D|----10-----10-----10-----10-----10-----10-----9---------------|
A|--6------6------6------6------8------8------8-----------------|
E|--------------------------------------------------------------|

[Violin]
    <
e|--13-11-10-11-13-15-13~~~-15-13~~~--15-16~~~--18~~~--15~~~----|
B|--------------------------------------------------------------|
G|--------------------------------------------------------------|
D|--------------------------------------------------------------|
A|--------------------------------------------------------------|
E|--------------------------------------------------------------|

[Piano]
e|--------------------------------------------------------------|
B|------9-----9-----9-----9-----9-----9-----9-----9-----9-------|
G|--------------------------------------------------------------|
D|----9-----9-----9-----9-----9-----9-----9-----9-----9---------|
A|--8-----8-----8-----8-----8-----8-----8-----8-----8-----------|
E|--------------------------------------------------------------|

[Violin]
    <     <                             <        <
e|--15~~~-15-16-18-16~~~-16-18-20-19~~~-16-15~~~-15-16-18-16~~~-|
B|--------------------------------------------------------------|
G|--------------------------------------------------------------|
D|--------------------------------------------------------------|
A|--------------------------------------------------------------|
E|--------------------------------------------------------------|

[Violin]
    <
e|--16-18-20-19~~~--16-15~~~----13~~~--11~~~--10~~~--8~~~-------|
B|--------------------------------------------------------------|
G|--------------------------------------------------------------|
D|--------------------------------------------------------------|
A|--------------------------------------------------------------|
E|--------------------------------------------------------------|
Добавлено: 01.06.2012
Другие материалы по этой песне:

Страница создана 24.05.2012
http://primanota.ru/javier-navarrete/pans-labyrinth-chords.htm
Привет, Гость.
Предлагаем пройти революционный курс по гитаре.
Подарок от PrimaNota.Ru, забирай!