PrimaNota.ru - самый крупный в мире бесплатный архив песенных текстов, аккордов, табулатур и нот


Javier Navarrete - A Princesspans Labyrinth Soundtrack - таба, видео

Регистрация Запомнить меня
Войти через:  Facebook Google Twitter Vk Yandex Mail.ru

Javier Navarrete - A Princesspans Labyrinth Soundtrack - таба, видео

Печатать
Просмотров: 242
I did it by ear so i hope u enjoy it, I am still working on to complete the whole song 
but this intro sounds good !!! :D



- Intro (Multi-Stings)

e|----0---------------0---1---0----------0-------------0--1------------------|
B|--------3---1---3-------------------------3---1---3---------3--------------|
G|---------------------------------------------------------------------------|
D|---------------------------------------------------------------------------|
A|---------------------------------------------------------------------------|
E|---------------------------------------------------------------------------|

e|-----------------------0------0-----0---1---3---1---0-------0-----0--------|
B|---3---1---0---1---3------3------3----------------------3------3-----------|
G|---------------------------------------------------------------------------|
D|---------------------------------------------------------------------------|
A|---------------------------------------------------------------------------|
E|---------------------------------------------------------------------------|


---Intro(again)---


e|---0---1---3---5--4--5--4---1---0------0-----0-----------------------------|
B|------------------------------------3-----3--------------------------------|
G|---------------------------------------------------------------------------|
D|---------------------------------------------------------------------------|
A|---------------------------------------------------------------------------|
E|---------------------------------------------------------------------------|


                                OR another one much more easy :


- Intro(1 sting):

e|---------------------------------------------------------------------------|
B|----5---3---1---3---5--6---5-------------5---3---1----3---5---6----3-------|
G|---------------------------------------------------------------------------|
D|---------------------------------------------------------------------------|
A|---------------------------------------------------------------------------|
E|---------------------------------------------------------------------------|

e|---------------------------------------------------------------------------|
B|---3---1---0---1---3---5---3---5---3---5--6---8---6---5---3---5---3---5----|
G|---------------------------------------------------------------------------|
D|---------------------------------------------------------------------------|
A|---------------------------------------------------------------------------|
E|---------------------------------------------------------------------------|

---Intro (again)---

e|---------------------------------------------------------------------------|
B|--5-- 6--- 8---6-- 6-- 6-- 7--- 8---7---8---7--- 6--- 5-- 3-- 5-----3---5--|
G|---------------------------------------------------------------------------|
D|---------------------------------------------------------------------------|
A|---------------------------------------------------------------------------|
E|---------------------------------------------------------------------------|
Добавлено: 10.03.2012
Другие материалы по этой песне:
  • Аккорды и текст

Страница создана 10.03.2012
http://primanota.ru/javier-navarrete/a-princesspans-labyrinth-soundtrack-chords.htm
Привет, Гость.
Предлагаем пройти революционный курс по гитаре.
Подарок от PrimaNota.Ru, забирай!